one tree hill tab? - U2 Feedback

Go Back   U2 Feedback > Your Blue Room > Even Better Than The Real Thing ??
Click Here to Login
Reply
 
Thread Tools Search this Thread Display Modes
 
Old 12-09-2004, 08:53 AM   #1
New Yorker
 
MooMoo!'s Avatar
 
Join Date: Apr 2004
Location: MUTANT SPIDER THING. D=<
Posts: 3,090
Local Time: 02:35 PM
one tree hill tab?

can somebody point me in its general direction?
__________________

MooMoo! is offline   Reply With Quote
Old 12-09-2004, 10:16 PM   #2
Babyface
 
Join Date: Nov 2004
Posts: 2
Local Time: 01:35 PM
hi MooMoo!

It´s funny this tread is called: Three Chords and the Truth....

and basically this song has just 3 chords!

Intro/Verse:


C F Bb F C

Chorus:

Bb F C


C

e-----------------------------------------------
b-----------------13----11----13------------
g--------(12)----------------------------------
d---10-----------------------------------------
a-----------------------------------------------
E-----------------------------------------------

F

e-----------------------------------------------
b----------------6-----------------------------
g---------5------------------------------------
d---3------------------------------------------
a-----------------------------------------------
E-----------------------------------------------

Bb

e-----------------------------------------------
b----------------11-----------------------------
g---------10------------------------------------
d---8------------------------------------------
a-----------------------------------------------
E-----------------------------------------------

i hope you get along!

cheers!
__________________

dismantle_me is offline   Reply With Quote
Old 12-11-2004, 04:19 PM   #3
New Yorker
 
MooMoo!'s Avatar
 
Join Date: Apr 2004
Location: MUTANT SPIDER THING. D=<
Posts: 3,090
Local Time: 02:35 PM
ta!
MooMoo! is offline   Reply With Quote
Old 12-13-2004, 06:52 AM   #4
Babyface
 
Join Date: Dec 2004
Location: Sicily (for now)
Posts: 4
Local Time: 03:35 PM
Big Grin One Tree Hill (LIVE)

Go ahead and go to the U2 guitar archive it should still have my version of One Tree Hill (Live) My old email was brooklynfella@hotmail.com and my name is John Couillard. If you do not have access let me know and I will email you a copy directly...Take care
DaEdge is offline   Reply With Quote
Old 12-13-2004, 03:41 PM   #5
New Yorker
 
MooMoo!'s Avatar
 
Join Date: Apr 2004
Location: MUTANT SPIDER THING. D=<
Posts: 3,090
Local Time: 02:35 PM
um, in case you hadent noticed , the archve got killed by universal.

but ta anyways.
MooMoo! is offline   Reply With Quote
Old 12-15-2004, 01:02 PM   #6
ONE
love, blood, life
 
GibsonGirl's Avatar
 
Join Date: Jun 2002
Posts: 13,270
Local Time: 09:35 AM
Re: One Tree Hill (LIVE)

Quote:
Originally posted by DaEdge
Go ahead and go to the U2 guitar archive it should still have my version of One Tree Hill (Live) My old email was brooklynfella@hotmail.com and my name is John Couillard. If you do not have access let me know and I will email you a copy directly...Take care
The tab is great, by the way. I much prefer the live version of One Tree Hill, and your tab is near dead-on.
GibsonGirl is offline   Reply With Quote
Old 01-29-2005, 06:50 PM   #7
Refugee
 
-macphisto-'s Avatar
 
Join Date: May 2004
Posts: 1,401
Local Time: 01:35 PM
The intro is pretty tough
-macphisto- is offline   Reply With Quote
Old 04-09-2010, 09:49 PM   #8
Refugee
 
The_Pac_Mule's Avatar
 
Join Date: Feb 2007
Location: Vermont
Posts: 1,346
Local Time: 09:35 AM
I know this is old but does anybody still have that live tab??
__________________

The_Pac_Mule is offline   Reply With Quote
Reply

Thread Tools Search this Thread
Search this Thread:

Advanced Search
Display Modes

Posting Rules
You may not post new threads
You may not post replies
You may not post attachments
You may not edit your posts

BB code is On
Smilies are On
[IMG] code is On
HTML code is Off
Trackbacks are Off
Pingbacks are Off
Refbacks are Off



All times are GMT -5. The time now is 08:35 AM.


Powered by vBulletin® Version 3.8.8 Beta 1
Copyright ©2000 - 2019, vBulletin Solutions, Inc.
Design, images and all things inclusive copyright © Interference.com
×