Last Night On Earth acoustic - U2 Feedback

Go Back   U2 Feedback > Your Blue Room > Even Better Than The Real Thing ??
Click Here to Login
Reply
 
Thread Tools Search this Thread Display Modes
 
Old 10-21-2006, 02:07 PM   #1
Refugee
 
europop2005's Avatar
 
Join Date: Mar 2006
Posts: 2,420
Local Time: 01:04 AM
Last Night On Earth acoustic

has anyone ever tried Last Night On Earth acoustically? it sounds fantastic!

tune 1/2 step down


intro/main riff:
E D
e--------------------------------------------------
b--------------------------------------------------
g--------------------------------------------------
d-------------------0----7--7-7--------------------
a-2----2-----2------0--2/5--5-5--------------------
E-0--0-3bp0--3bp0----------------------------------

*i hope this doesn't look to complicated. the 3bp0 means:
-pick 3rd fret, bend and pull off to 0

verse:
E D E D
she feels the ground is giving way
E D E D
but she thinks we're better off that way
'the more you take the less you feel
the less you know the more you believe
the more you have the more it takes today'

chorus:
G D A Bm
you got to give it away
G D E A
you got to give it away
G D A Bm
you got to give it away
A
she doesn't care what it's worth
A Em A Em A
she's living like it's the last night on earth


2nd verse

2nd chorus


bridge: E C#m C#m A

slipping away...slip slide...
the world turns and we get dizzy
slipping away

end on Em
back to main riff


outro: Em A Em A

Em A
e-0---------0----------------
b-0--0------2----------------
g-0----0----2----------------
d-2------0--2----------------
a-2---------0----------------




Last Night on Earth



intro/main riff:
E D
e--------------------------------------------------
b--------------------------------------------------
g--------------------------------------------------
d-------------------0----4--4-4--------------------
a-2----2-----2------0----0--0-0--------------------
E-0--0-3bp0--3bp0----------------------------------
__________________

europop2005 is offline   Reply With Quote
Old 10-22-2006, 10:18 PM   #2
New Yorker
 
The Disciple's Avatar
 
Join Date: Jan 2004
Location: Florida
Posts: 2,596
Local Time: 01:04 AM
Thanx 4 sharing... I'll try it.
The Disciple is offline   Reply With Quote
Reply

Thread Tools Search this Thread
Search this Thread:

Advanced Search
Display Modes

Posting Rules
You may not post new threads
You may not post replies
You may not post attachments
You may not edit your posts

BB code is On
Smilies are On
[IMG] code is On
HTML code is Off
Trackbacks are Off
Pingbacks are Off
Refbacks are Off



All times are GMT -5. The time now is 12:04 AM.


Powered by vBulletin® Version 3.8.8 Beta 1
Copyright ©2000 - 2019, vBulletin Solutions, Inc.
Design, images and all things inclusive copyright © Interference.com
×