Unknown Caller - U2 Feedback

Go Back   U2 Feedback > Your Blue Room > Even Better Than The Real Thing ??
Click Here to Login
Reply
 
Thread Tools Search this Thread Display Modes
 
Old 03-01-2009, 01:18 PM   #1
Refugee
 
europop2005's Avatar
 
Join Date: Mar 2006
Posts: 2,420
Local Time: 09:38 PM
Unknown Caller tabs please!!!

Its the song that i'm looking most forward to playing...does anyone know it???
__________________

europop2005 is offline   Reply With Quote
Old 03-01-2009, 09:49 PM   #2
ONE
love, blood, life
 
EdgeIsTooSexy's Avatar
 
Join Date: May 2007
Posts: 10,828
Local Time: 08:38 PM
Unknown Caller

anybody figure this out yet?
I want the whole song but I'm mostly interested in the solo.
And I suck at tabbing myself
__________________

EdgeIsTooSexy is offline   Reply With Quote
Old 03-02-2009, 07:01 PM   #3
Refugee
 
europop2005's Avatar
 
Join Date: Mar 2006
Posts: 2,420
Local Time: 09:38 PM
RIFF INTRO:
e | -------10-----------10------
B | -----8----8-------8----10---
G | ---(b9)-----------(b9)----------
D | ----------------------------
A | ----------------------------
E | ----------------------------

Sunshine, sunshine
Sunshine, sunshine

( G C F )

Dm Am ( C G F )
Oh, oh
Dm Am ( C )
Oh, oh


Am G F Em
I was lost between the midnight and the dawning
Am G F
In a place of no consequence or company
Am G F Em
3:33 when the numbers fell off the clock face
Am G F
Speed dialling with no signal at all


G
Go, shout it out, rise up
Dm Am
Oh, oh
C
Escape yourself, and gravity
G
Hear me, cease to speak that I may speak

Shush now
Dm Am
Oh, oh
C
Force quit and move to trash


Am G F Em
I was right there at the top of the bottom
Am G F
On the edge of the known universe where I wanted to be
Am G F Em
I had driven to the scene of the accident
Am G F
And I sat there waiting for me


G
Restart and re-boot yourself

You’re free to go
Dm Am
Oh, oh
C
Shout for joy if you get the chance
G
Password, you, enter here, right now
Dm Am
Oh, oh
C
You know your name so punch it in
G
Hear me, cease to speak that I may speak

Shush now
Dm Am
Oh, oh
C
Then don’t move or say a thing


( Am G )
SOLO:
( Dm Am C G )4x

G
europop2005 is offline   Reply With Quote
Old 03-04-2009, 09:01 AM   #4
Babyface
 
Join Date: Apr 2005
Posts: 3
Local Time: 02:38 AM
You can start to play with this, its from my head and its not perfect, but you can figure out


E----10-1010--10--10--8--7--10-1010--13-12-13-13-13-12-10-8-10-12-10-8-13-12-10-8-
B--------------------------------------------------------------------------------------
G--------------------------------------------------------------------------------------


E--7-8-10---10----10-------15------15-
B----------8-----8-------12-----12-----
G


E---15-------------15-------17------17-----17--------------------------5--3------
B12----13--15--17------17-------15-----15--------13---12---10-----7---------7
G-----------------------------------------------------------------------
D -------------
A
E

E-------------------5--3-----------------------------
B----------------------------------------------
G---------------7--------7--()--4-5--7--9--10--9--7-- this last part repeat
D10-9-10-9-7----------------------------------

E--------3----------3------------3---
B-------------------------------------
G----0----------0------0------0-------
D--5---------5--------------5---------


Dream oUt loud!
J
Paul_Durden is offline   Reply With Quote
Reply

Tags
unknown caller

Thread Tools Search this Thread
Search this Thread:

Advanced Search
Display Modes

Posting Rules
You may not post new threads
You may not post replies
You may not post attachments
You may not edit your posts

BB code is On
Smilies are On
[IMG] code is On
HTML code is Off
Trackbacks are Off
Pingbacks are Off
Refbacks are Off



All times are GMT -5. The time now is 08:38 PM.


Powered by vBulletin® Version 3.8.8 Beta 1
Copyright ©2000 - 2022, vBulletin Solutions, Inc.
Design, images and all things inclusive copyright © Interference.com
×