Last night on earth live - U2 Feedback

Go Back   U2 Feedback > Your Blue Room > Even Better Than The Real Thing ??
Click Here to Login
Reply
 
Thread Tools Search this Thread Display Modes
 
Old 01-31-2006, 04:46 AM   #1
Refugee
 
Pero's Avatar
 
Join Date: Sep 2004
Location: Zagreb, Croatia
Posts: 2,089
Local Time: 04:34 PM
Last night on earth live

How to play it?
__________________

Pero is offline   Reply With Quote
Old 02-18-2006, 08:28 AM   #2
Babyface
 
Join Date: Jun 2004
Posts: 28
Local Time: 03:34 PM
Made this a few years ago. Enjoy.

U2 'LAST NIGHT ON EARTH'Live

tune 1/2 step down

Bass enters make a persucive sound by muting an Em on your guitar

main riff
e------------------|-----------------|------------------|-----------------|
b------------------|-----------------|------------------|-----------------|
g------------------|-----------------|------------------|-----------------|
d----------------0-|-0---------------|----------------0-|-0---------------|
a-2--------------0-|-0---9--9--9-----|-2--------------0-|-0---9--9--9-----|
E-0--3p0--3p0------|-----------------|-0--3p0--3p0------|-----------------|

e------------------|-----------------|------------------|-----------------|
b------------------|-----------------|------------------|-----------------|
g------------------|-----------------|------------------|-----------------|
d----------------0-|-0---------------|----------------0-|-0---------------|
a-2--------------0-|-0---9--9--9-----|-2--------------0-|-0---9--9--9-----|
E-0--3p0--3p0------|-----------------|-0--3p0--3p0------|-----------------|

verse:1
she feels the ground is giving way
e------------------|-----------------|------------------|-----------------|
b------------------|-----------------|------------------|-----------------|
g------------------|-----------------|------------------|-----------------|
d----------------0-|-0---------------|----------------0-|-0---------------|
a-2--------------0-|-0---9--9--9-----|-2--------------0-|-0---9--9--9-----|
E-0--3p0--3p0------|-----------------|-0--3p0--3p0------|-----------------|

but she thinks we're better off that way
e------------------|-----------------|------------------|-----------------|
b------------------|-----------------|------------------|-----------------|
g------------------|-----------------|------------------|-----------------|
d----------------0-|-0---------------|----------------0-|-0---------------|

a-2--------------0-|-0---9--9--9-----|-2--------------0-|-0---9--9--9-----|
E-0--3p0--3p0------|-----------------|-0--3p0--3p0------|-----------------|

'the more you take the less you feel
e------3-----------3--|------3--------------|
b------3-----------3--|------3--------------|
g------4-----------4--|------4--------------|
d------5-----------5--|------5--------------|
a---------------------|---------------5/7---|
E-3-----------3-------|-3-----------3-3/5---|


the less you know the more you believe
e------5-----------5--|------5----------5-5-|
b------5-----------5--|------5----------5-5-|
g------6-----------6--|------6----------6-6-|
d------7-----------7--|------7----------7-7-|
a---------------------|---------------------|
E-5-------5---5-------|5--5-----5---5-------|

the more you have the more it takes today' you got to give it away
e------------------|-----------------|------------------|----------------------3-3|
b------------------|-----------------|------------------|----------------------3-3|
g------------------|-----------------|------------------|----------------------0-0|
d----------------0-|-0---------------|----------------0-|-0--------------------0-0|
a-2--------------0-|-0---9--9--9-----|-2--------------0-|-0---9--9--9----------x--|
E-0--3p0--3p0------|-----------------|-0--3p0--3p0------|----------------------3--|
chorus:

you got to give it away you got to give it away give it away
e-3-------2--------2-2----|---------------------3-3-|-3--------2---2--0--0--|
b-3-------3--------3-3-2-2|2---------3------3-3-3-3-|-3--------3---3--0--0--|
g-0---0---2--------2-2-2-2|2---------4------4-4-0-0-|-0----0---2---2--0--0--|
d-0---0---0--------0-0-2-2|2-2---2---4------4-4-0---|-0----0---0---0-----2--|
a-x---x-------------------|0-0---0---2------2-2-x---|-x----x-------------2--|
E-3---3-------------------|---------------------3---|-3----3-------------0--|


you got to give it away you got to give it away well she
e---------3-------3---3--|3---------2-------------|-------------------------|
b---------3-------3---3--|3---------3-------------|-------3-------3---3-----|
g---------0-------0---0--|0---------2-------------|-2-----4-------4---4-----|
d---------0-------0---0--|0---------0---------2---|-2---2-4-------4---4---0-|
a--2--2---x-------x---x--|x-------------------0---|-0---0-2-------2---2---0-|
E--0--0---3-------3---3--|3-----------------------|-------------------------|



don't care what it's worth she's living like it's the
e------------------------|----------5-------------|----------------------|
b------------------------|----------5-------------|--------------3-------|
g--2---2--2------0----0--|----------2---2--4--4---|-4---2---0----0-------|
d--2---2--2------0----0--|----------2---2--4--4---|-4---2---0----0-------|
a--0---0--0------x----x--|------------------------|---------x----x-------|
E----------------3----3--|------------------------|---------3----3----3--|


last night on earth last night on earth
e------------------------|-----------------------------------------------|
b------------------------|12--12-12-12--12-12-----12--12-12-12--12-12----|
g--2-0-0-2-2-0-0---------|-----------------------------------------------|
d--2-0-0-2-2-0-0---------|-----------------------------------------------|
a------------------------|-----------------------------------------------|
E------------------------|-----------------------------------------------|

last night on earth
e-----------------------------------------------|
b12--12-12-12--12-12-----12--12-12-12--12-12/15-|
g-----------------------------------------------|
d-----------------------------------------------|repeat this 2 times
a-----------------------------------------------|
E-----------------------------------------------|

she´s not waiting on a saviour to come
e------------------|-----------------|------------------|-----------------|
b------------------|-----------------|------------------|-----------------|
g------------------|-----------------|------------------|-----------------|
d----------------0-|-0---------------|----------------0-|-0---------------|
a-2--------------0-|-0---9--9--9-----|-2--------------0-|-0---9--9--9-----|
E-0--3p0--3p0------|-----------------|-0--3p0--3p0------|-----------------|

she´s at the busstop with the news of the world and the sun sun here it comes
e------------------|-----------------|------------------|-----------------|
b------------------|-----------------|------------------|-----------------|
g------------------|-----------------|------------------|-----------------|
d----------------0-|-0---------------|----------------0-|-0---------------|
a-2--------------0-|-0---9--9--9-----|-2--------------0-|-0---9--9--9-----|
E-0--3p0--3p0------|-----------------|-0--3p0--3p0------|-----------------|



she´s not waiting for anyone you got to give it away
e------------------|-----------------|------------------|----------------------3-3|
b------------------|-----------------|------------------|----------------------3-3|
g------------------|-----------------|------------------|----------------------0-0|
d----------------0-|-0---------------|----------------0-|-0--------------------0-0|
a-2--------------0-|-0---9--9--9-----|-2--------------0-|-0---9--9--9----------x--|
E-0--3p0--3p0------|-----------------|-0--3p0--3p0------|----------------------3--|
chorus:

you got to give it away you got to give it away give it away
e-3-------2--------2-2----|---------------------3-3-|-3--------2---2--0--0--|
b-3-------3--------3-3-2-2|2---------3------3-3-3-3-|-3--------3---3--0--0--|
g-0---0---2--------2-2-2-2|2---------4------4-4-0-0-|-0----0---2---2--0--0--|
d-0---0---0--------0-0-2-2|2-2---2---4------4-4-0---|-0----0---0---0-----2--|
a-x---x-------------------|0-0---0---2------2-2-x---|-x----x-------------2--|
E-3---3-------------------|---------------------3---|-3----3-------------0--|


you got to give it away you got to give it away well she
e---------3-------3---3--|3---------2-------------|-------------------------|
b---------3-------3---3--|3---------3-------------|-------3-------3---3-----|
g---------0-------0---0--|0---------2-------------|-2-----4-------4---4-----|
d---------0-------0---0--|0---------0---------2---|-2---2-4-------4---4---0-|
a--2--2---x-------x---x--|x-------------------0---|-0---0-2-------2---2---0-|
E--0--0---3-------3---3--|3-----------------------|-------------------------|



don't care what it's worth she's living like it's the
e------------------------|----------5-------------|----------------------|
b------------------------|----------5-------------|--------------3-------|
g--2---2--2------0----0--|----------2---2--4--4---|-4---2---0----0-------|
d--2---2--2------0----0--|----------2---2--4--4---|-4---2---0----0-------|
a--0---0--0------x----x--|------------------------|---------x----x-------|
E----------------3----3--|------------------------|---------3----3----3--|


last night on earth last night on earth
e------------------------|-----------------------------------------------|
b------------------------|12--12-12-12--12-12-----12--12-12-12--12-12----|
g--2-0-0-2-2-0-0---------|-----------------------------------------------|2 times
d--2-0-0-2-2-0-0---------|-----------------------------------------------|
a------------------------|-----------------------------------------------|
E------------------------|-----------------------------------------------|

last night on earth bridge:
e-----------------------------------------------|------------------------|
b12--12-12-12--12-12-----12--12-12-12--12-12/15-|------------------------|
g-----------------------------------------------|------------------------|
d-----------------------------------------------|------------------------|
a-----------------------------------------------|------------------------|
E-----------------------------------------------|--0---------------------


slipping away slip slide...bla bla... the world turns and we get dizzy slipping away
F#m A E
e----9-----9----|-9----9-------|--------5-----------|--------0---------|
b------9-----9--|---9----9---9-|----5-----5---------|----0-----0-------|
g--------9-----9|-----9----9---|------6-----6-------|------2-----2-----| x8
d---------------|--------------|--------------------|------------------|
a---------------|--------------|--------------------|------------------|
E-9-------------|--------------|-5------------------|-0----------------|

e---------------|
b---------------|
g---------------|
d---------------|
a-2------2------|
E-0------0------|

verse:3
she´living living next week now
e------------------|-----------------|------------------|-----------------|
b------------------|-----------------|------------------|-----------------|
g------------------|-----------------|------------------|-----------------|
d----------------0-|-0---------------|----------------0-|-0---------------|
a-2--------------0-|-0---9--9--9-----|-2--------------0-|-0---9--9--9-----|
E-0--3p0--3p0------|-----------------|-0--3p0--3p0------|-----------------|

you know she´s going to pay it back some how
e------------------|-----------------|------------------|-----------------|
b------------------|-----------------|------------------|-----------------|
g------------------|-----------------|------------------|-----------------|
d----------------0-|-0---------------|----------------0-|-0---------------|
a-2--------------0-|-0---9--9--9-----|-2--------------0-|-0---9--9--9-----|
E-0--3p0--3p0------|-----------------|-0--3p0--3p0------|-----------------|

she hasn´t been to bed in a week she´ll be
e------3-----------3--|------3--------------|
b------3-----------3--|------3--------------|
g------4-----------4--|------4--------------|
d------5-----------5--|------5--------------|
a---------------------|---------------5/7---|
E-3-----------3-------|-3-----------3-3/5---|


dead soon then she ´ll sleep
e------5-----------5--|------5----------5-5-|
b------5-----------5--|------5----------5-5-|
g------6-----------6--|------6----------6-6-|
d------7-----------7--|------7----------7-7-|
a---------------------|---------------------|
E-5-------5---5-------|5--5-----5---5-------|

chorus:

you got to give it away you got to give it away give it away
e-3-------2--------2-2----|---------------------3-3-|-3--------2---2--0--0--|
b-3-------3--------3-3-2-2|2---------3------3-3-3-3-|-3--------3---3--0--0--|
g-0---0---2--------2-2-2-2|2---------4------4-4-0-0-|-0----0---2---2--0--0--|
d-0---0---0--------0-0-2-2|2-2---2---4------4-4-0---|-0----0---0---0-----2--|
a-x---x-------------------|0-0---0---2------2-2-x---|-x----x-------------2--|
E-3---3-------------------|---------------------3---|-3----3-------------0--|


you got to give it away you got to give it away well she
e---------3-------3---3--|3---------2-------------|-------------------------|
b---------3-------3---3--|3---------3-------------|-------3-------3---3-----|
g---------0-------0---0--|0---------2-------------|-2-----4-------4---4-----|
d---------0-------0---0--|0---------0---------2---|-2---2-4-------4---4---0-|
a--2--2---x-------x---x--|x-------------------0---|-0---0-2-------2---2---0-|
E--0--0---3-------3---3--|3-----------------------|-------------------------|



don't care what it's worth she's living like it's the
e------------------------|----------5-------------|----------------------|
b------------------------|----------5-------------|--------------3-------|
g--2---2--2------0----0--|----------2---2--4--4---|-4---2---0----0-------|
d--2---2--2------0----0--|----------2---2--4--4---|-4---2---0----0-------|
a--0---0--0------x----x--|------------------------|---------x----x-------|
E----------------3----3--|------------------------|---------3----3----3--|


last night on earth last night on earth
e------------------------|-----------------------------------------------|
b------------------------|12--12-12-12--12-12-----12--12-12-12--12-12----|
g--2-0-0-2-2-0-0---------|-----------------------------------------------|
d--2-0-0-2-2-0-0---------|-----------------------------------------------|
a------------------------|-----------------------------------------------|
E------------------------|-----------------------------------------------|

last night on earth
e-----------------------------------------------|
b12--12-12-12--12-12-----12--12-12-12--12-12/15-|
g-----------------------------------------------|repeat 4 times
d-----------------------------------------------|
a-----------------------------------------------|
E-----------------------------------------------|

e-0---------0---------|-------------------|Here Bono continue on this riff untill
b-0---------0-------5-|--3---2----3---2---|the end of the song.
g-0---------0-------2-|--0---5----0---5---|If you only got one guitar. play
d-2---------2-------2-|--0---5----0---5---|this 5 times and then go to endingjam.
a-2--------------2----|-------------------|Edge varies that a little listen to
E-0--------------0----|-------------------|the song.Remember this is from Sweden concert
Maybe he does something different in other concerts
hold
e------------------------|--------------------------|
b-12---14---14b----------|12-14--14b-14b-14b-14b-12-|
g------------------------|--------------------------|
d------------------------|--------------------------|repeat 8 times and then
a------------------------|--------------------------|
E------------------------|--------------------------|


e----12----14-12-14-12---|
b-12---12----------------|
g------------------------|repeat 8 times and then just finnish on slashing Em and thats it
d------------------------|
a------------------------|
E------------------------|
4215Andersson is offline   Reply With Quote
Reply

Thread Tools Search this Thread
Search this Thread:

Advanced Search
Display Modes

Posting Rules
You may not post new threads
You may not post replies
You may not post attachments
You may not edit your posts

BB code is On
Smilies are On
[IMG] code is On
HTML code is Off
Trackbacks are Off
Pingbacks are Off
Refbacks are Off



All times are GMT -5. The time now is 09:34 AM.


Powered by vBulletin® Version 3.8.8 Beta 1
Copyright ©2000 - 2022, vBulletin Solutions, Inc.
Design, images and all things inclusive copyright © Interference.com
×