ISHFWILF Live at Milan 2005 - U2 Feedback

Go Back   U2 Feedback > Your Blue Room > Even Better Than The Real Thing ??
Click Here to Login
Reply
 
Thread Tools Search this Thread Display Modes
 
Old 10-29-2008, 09:36 AM   #1
Babyface
 
Join Date: Oct 2008
Posts: 1
Local Time: 12:41 AM
ISHFWILF Live at Milan 2005

Hi there,

on the Milan concert in 2005 Bono talks at the beginning of the song a while to the audience while The Edge plays the typical melody from "I still havent..." in the background. What is he playing there? Does anyone know the notes or can send me the tabs?

Would be great, because it sounds so good.
__________________

wagnbeu0 is offline   Reply With Quote
Old 11-02-2008, 11:32 AM   #2
Refugee
 
The_Pac_Mule's Avatar
 
Join Date: Feb 2007
Location: Vermont
Posts: 1,346
Local Time: 07:41 PM
Verse 1 (Play twice)
e--------------------------------4-----------------
b-----5-5-5-----5---------5-5-5----5--------------
g--2----------2-----2---2--------------------------
d--------------------------------------------------
a--------------------------------------------------
e--------------------------------------------------

Verse 2 (Play Once)
e-------------------------------4---------------------------------------4-----
b--------5-5-5---5-------5-5-5---5-----------5-5-5----5---------5-5-5-----5-
g-----2--------2-------2-------------------2--------2---------2--------------
d--0----------------0---------------------------------------------------------
a----------------------------------------0------------------0-----------------
e-----------------------------------------------------------------------------

Chorus (Play twice)
e--------------------------------4--------------------------------------4----
b------5-5-5-----5--------5-5-5----5---------5-5-5-----5--------5-5-5---5--
g----2--------2---------2------------------2---------2--------2-------------
d--------------------0-------------------------------------------------------
a----------------------------------------0-----------------0-----------------
e-0--------------------------------------------------------------------------


e------------------------------------
b-3--3--2----2--2--3------3--3--2--- throw some palm muting in between the chords
g-2--2--2----2--2--2------2--2--2---
d-2--2--2----2--2--2------2--2--2---
a------------------------------------
e------------------------------------


thats it! sorry if it looks weird just put it into word or something
__________________

The_Pac_Mule is offline   Reply With Quote
Old 11-08-2008, 06:31 PM   #3
Refugee
 
The_Pac_Mule's Avatar
 
Join Date: Feb 2007
Location: Vermont
Posts: 1,346
Local Time: 07:41 PM
oh and capo on either first or second fret
The_Pac_Mule is offline   Reply With Quote
Reply

Thread Tools Search this Thread
Search this Thread:

Advanced Search
Display Modes

Posting Rules
You may not post new threads
You may not post replies
You may not post attachments
You may not edit your posts

BB code is On
Smilies are On
[IMG] code is On
HTML code is Off
Trackbacks are Off
Pingbacks are Off
Refbacks are Off



All times are GMT -5. The time now is 06:41 PM.


Powered by vBulletin® Version 3.8.8 Beta 1
Copyright ©2000 - 2021, vBulletin Solutions, Inc.
Design, images and all things inclusive copyright © Interference.com
×