Bullet The Blue Sky Solo? - U2 Feedback

Go Back   U2 Feedback > Your Blue Room > Even Better Than The Real Thing ??
Click Here to Login
Reply
 
Thread Tools Search this Thread Display Modes
 
Old 04-21-2006, 12:37 AM   #1
Babyface
 
Join Date: Mar 2006
Posts: 12
Local Time: 07:33 PM
Bullet The Blue Sky Solo?

Does any1 have a good version of the solo, i know it is mostly the same through the tours but on vertigo he does a cool outro. Its the same on most of the recordings I have heard but i havent found a worthwhile tab for it.
__________________

wesiderider is offline   Reply With Quote
Old 04-23-2006, 01:52 PM   #2
Rock n' Roll Doggie
VIP PASS
 
Total U2 Nut's Avatar
 
Join Date: Sep 2005
Location: London, baby - yeah!
Posts: 5,628
Local Time: 07:33 PM
Bullet The Blue Sky (live)
Tabbed by John Couillard
Tune down 1/2 a step

INTROdistrotion alot of it)

big E--0--------- let ring

then
E------------------------------------|
B----7-7\------------------- repeat--| 4x
G----7-7\----------------------------|slide down the neck
D----7-7\----------------------------|
A----7-7\----------------------------|
E--0---------------------------------|

then

big E--0--- let ring

then VERSE:echo, and some wah, little distortion

E---------------------------------|
B---------------------------------|
G---------------------------------|
D---------------------------------|
A---------------7-----7----7--5h7-|
E-15\---0-------------------------|mute w/finger right away

this is for rest of the VERSE:

E-----------------------|
B-----------------------| repeat this a couple of times
G-----------------------|
D------x-x-x------------|
A----7-x-x-x--7---5h7---|
E--0---x-x-x------------|

CHORUS:

E-----------------------------| I put those xxx close
B-----------------------------| together to show he is
G--7-7-7----------------------| actually muting with finger
D--7-7-7----------------------| between notes. watch closely
A--7-7-7--5-xxx-5--5-5--------|h7p5h7 his hand is moving pretty
E-----------------------------| quickly. but listen he mutes
more in between certain notes


then VERSE

then CHORUS

then SOLO:
E-----3-3-3-3-3------------------|
B-----3-3-3-3-3------------------|
G-----0-0-0-0-0------------------|
D--------------------------------|
A-------------------------5-5h7--| repeat a couple of times
E--0----------------0/7----------|

then
E------------15---15---15---15---15-----------------------|
B-3/17-17(b)----17---17---17---17---17-17-15~~---14-15-17-|

E--------------------------------------------------------|
B-14h15p14\12--14/15(b)~~--------------------------------|

repeat that seqeuence 2x then

E------15-----------------------------------|
B-3/17-----17-15----------------------------|
G----------------16---14h16p14\12-----------|
D---------------------------------14-12-14--|
A-------------------------------------------|
E-------------------------------------------|

E---------------------15---15---15-15\------|
B------------12-14/17---17----17---17\------|
G------12-14--------------------------------|
D-7/14--------------------------------------|
A-------------------------------------------|
E-------------------------------------------|

E-/---15---------17---17---17---17--------|
B-/17---17-17/19---19---19---19-----------|
G-----------------------------------------|
D-----------------------------------------|
A-----------------------------------------|
E-----------------------------------------|

E------------12-----------------------------|
B-12-12-14(B)---14(b)----12--------12-------|
G----------------------------14-14-----12---|(b)
D-------------------------------------------|
A-------------------------------------------|
E-------------------------------------------|

E---------------------------------------------------------|
B---------------------------------------------------------|
G----------12----------------------12----12---------------|
D-14-12-14----14-12----------12-14----14----14------------|
A-------------------14-12-14------------------------------|
E---------------------------------------------------------|

E-----------------------------------------------------10-|
B----------------------------------9-9h11p9---12-12(b)---|
G---------------------7-7h9p7/-9h11----------------------|
D-----5-5h7p5-5/7-7h9------------------------------------|
A-5h7----------------------------------------------------|
E--------------------------------------------------------|

E---10---10-10-10-10--10-12\-----x----x--------|
B-12---12---12-12-12--12-12\-----15(b)15(b)----|
G----------------------x-x-------x----x--------|
D----------------------x-x-------x----x--------|
A----------------------------------------------|
E----------------------------------------------|

then hit open big e string

then with slide

b-7-7\ listen for timing
g-7-7\
d-7-7\
a-7-7\

then watch edge hit above the nut

then E-0-0--0-03(b)--3(b)--3(b)

then end with

B-12-12\
G-12-12\
D-12-12\
A-12-12\


I found this on www.ultimate-guitar.com - it's the whole thing, not just the solo, but if that's no good, there were some other versions that may interest you.
__________________

Total U2 Nut is offline   Reply With Quote
Old 04-25-2006, 11:10 PM   #3
Babyface
 
Join Date: Mar 2006
Posts: 12
Local Time: 07:33 PM
thanks i'll have to try it when i get my guitar fixed.
wesiderider is offline   Reply With Quote
Old 04-19-2008, 06:07 AM   #4
Babyface
 
ElFiLo's Avatar
 
Join Date: Apr 2008
Location: Granada
Posts: 9
Local Time: 08:33 PM
that concert is this?
ElFiLo is offline   Reply With Quote
Old 04-19-2008, 12:57 PM   #5
Refugee
 
Pero's Avatar
 
Join Date: Sep 2004
Location: Zagreb, Croatia
Posts: 2,089
Local Time: 09:33 PM
popmart tour
Pero is offline   Reply With Quote
Old 04-19-2008, 10:14 PM   #6
ONE
love, blood, life
 
EdgeIsTooSexy's Avatar
 
Join Date: May 2007
Posts: 10,828
Local Time: 02:33 PM
i know the version from the JT
and from the vertigo tour....
EdgeIsTooSexy is offline   Reply With Quote
Old 12-18-2008, 03:43 PM   #7
Babyface
 
ElFiLo's Avatar
 
Join Date: Apr 2008
Location: Granada
Posts: 9
Local Time: 08:33 PM
I think this tab is wrong (solo), anybody can post other tab of the solo for example of the pop mart version (mexico)?


Exactly from 3´07" to 3´13" of this video

ElFiLo is offline   Reply With Quote
Old 12-19-2008, 04:50 AM   #8
7cs
The Fly
 
7cs's Avatar
 
Join Date: Nov 2007
Location: Italy
Posts: 110
Local Time: 07:33 PM
I think it's:



B --------12--15(b)----------12-----------
G --14(b)------------12--14------12------
D ----------------------------------------14--


B --------------------------------------------8-----8-----
G ---------9--12--11---------------7--9-----9-----9--
D --9--12-------------12--9--7--9--------------------


e -----------------------------------------------------------------9------
B -----------------------------------7--9--7--9--7--9--9(b)----9(b)--
G ---------------------7--9--9--12-----------------------------------
D --------5--7--7--9-------------------------------------------------
A --5--7-------------------------------------------------------------


B --15(b)--15(b)--


This is how I've tabbed it out, but you can also look at this:

7cs is offline   Reply With Quote
Old 12-19-2008, 05:06 AM   #9
7cs
The Fly
 
7cs's Avatar
 
Join Date: Nov 2007
Location: Italy
Posts: 110
Local Time: 07:33 PM
P.S. In the live version guitar is tuned 1/2 step down...I don't know the tuning of the youtube video.
7cs is offline   Reply With Quote
Old 12-28-2008, 03:16 PM   #10
Babyface
 
ElFiLo's Avatar
 
Join Date: Apr 2008
Location: Granada
Posts: 9
Local Time: 08:33 PM
Thanks now sound better....
ElFiLo is offline   Reply With Quote
Old 01-07-2009, 11:54 AM   #11
Babyface
 
ElFiLo's Avatar
 
Join Date: Apr 2008
Location: Granada
Posts: 9
Local Time: 08:33 PM
Anybody know how play edge in the chicago live version between the 3´27" at the last while sing "These are the hands that built America "? Is a mysterious for me... thanxs

ElFiLo is offline   Reply With Quote
Old 06-18-2009, 11:23 PM   #12
Acrobat
 
CloserToKnowing's Avatar
 
Join Date: Nov 2004
Location: Kentucky, USA
Posts: 393
Local Time: 03:33 PM
Quote:
Originally Posted by 7cs View Post
P.S. In the live version guitar is tuned 1/2 step down...I don't know the tuning of the youtube video.

I believe its standard tuning in the youtube vid
__________________

CloserToKnowing is offline   Reply With Quote
Reply

Thread Tools Search this Thread
Search this Thread:

Advanced Search
Display Modes

Posting Rules
You may not post new threads
You may not post replies
You may not post attachments
You may not edit your posts

BB code is On
Smilies are On
[IMG] code is On
HTML code is Off
Trackbacks are Off
Pingbacks are Off
Refbacks are Off



All times are GMT -5. The time now is 02:33 PM.


Powered by vBulletin® Version 3.8.8 Beta 1
Copyright ©2000 - 2022, vBulletin Solutions, Inc.
Design, images and all things inclusive copyright © Interference.com
×