"Bad" acoustic ?? - U2 Feedback

Go Back   U2 Feedback > Your Blue Room > Even Better Than The Real Thing ??
Click Here to Login
Reply
 
Thread Tools Search this Thread Display Modes
 
Old 05-14-2004, 03:25 AM   #1
Acrobat
 
Join Date: Mar 2004
Location: Europe
Posts: 414
Local Time: 05:22 AM
"Bad" acoustic ??

Can anybody tell me where to find the tabs to play "Bad" acoustic, (...and I mean the song...)
'cause no electric guitar yet
and it's one of my alltime favorites
Found this already but how does it goes on at the "woo hoo's...Let it go"?
E|--------------------12-12-------------------12-12-|
B|--------------------------------------------------|
G|--------------------------------------------------|
D|--12-12-12-12--11----------12-12-12-12--11--------|
A|--0---0--0--0---0----------0---0--0--0---0--------|
E|--------------------------------------------------|

E|--------------------------------------------------|
B|-------------10-10------------10---10-------------|
G|--9-9-9-9-7---------9-9-9-9-7----7----7-----------|
D|--0-0-0-0-0---------0-0-0-0-0---------------------|
A|--------------------------------------------------|
E|--------------------------------------------------|

Thanks and greetz to all

P.S.: have to play some notes dounle 'cause I also can't affort a giant thin can that creates an echo...
__________________

silenus is offline   Reply With Quote
Old 05-14-2004, 11:39 AM   #2
Refugee
 
maro_chik's Avatar
 
Join Date: Jun 2003
Location: Winnipeg
Posts: 1,087
Local Time: 12:22 AM
Try this...

Part A
E|--------------------------------------------------|
B|--------------------------------------------------|
G|------9----9-----9-----9----9------------------|
D|--11---11---11---11---11--------------------|
A|--------------------------------------------------|
E|--------------------------------------------------|

E|--------------------------------------------------|
B|--------------------------------------------------|
G|------7----7-----7-----7----7------------------|
D|--7-----7----7-----7-----7---------------------|
A|--------------------------------------------------|
E|--------------------------------------------------|

Then back to your part...
Then back to A
(For the live versions, Edge will go an octave higher:

Part B
E|-------10----10----10---10--10---10---10---10---10----------|
B|---12----12----12---12---12---12---12---12---12---12-------|
G|--------------------------------------------------|
D|--------------------------------------------------|
A|--------------------------------------------------|
E|--------------------------------------------------|

E|------10---10---10---10---10---10---10---10---10----------|
B|---10---10---10---10---10---10---10---10---10---10----|
G|--------------------------------------------------|
D|--------------------------------------------------|
A|--------------------------------------------------|
E|--------------------------------------------------|

E|---------------------------------------------------|
B|--------------------------------------------------|
G|------------7---9---7--------------7---9---7-------9-----|
D|---7---7------------------7---7-----------------7------|
A|--------------------------------------------------|
E|--------------------------------------------------|

I hope it works out for you.
__________________

maro_chik is offline   Reply With Quote
Old 05-16-2004, 09:32 PM   #3
War Child
 
Phalanx's Avatar
 
Join Date: Jan 2004
Posts: 654
Local Time: 12:22 AM
Actually, the better way of playing "Part A" is by alternating between an A and Asus4 chord on the second fret. It's a more clear sound, and I am pretty sure it's the way the Edge plays it.
Phalanx is offline   Reply With Quote
Old 05-17-2004, 02:22 AM   #4
Acrobat
 
Join Date: Mar 2004
Location: Europe
Posts: 414
Local Time: 05:22 AM
Looks good and will try it out this evening and let you know...
(Don't have a guitar here 'cause I'm at work)
A lot of thanks to both of you...
silenus is offline   Reply With Quote
Old 05-18-2004, 03:09 AM   #5
Acrobat
 
Join Date: Mar 2004
Location: Europe
Posts: 414
Local Time: 05:22 AM
Tried it yesterday and went well...
But someone send me this one and it works better for me...
It's that hypnotising "Woo-hoo...Let it go" part...and sounds really good acoustic

e---0---0---0---0---0----------------------0----------------
b-2---2---2---2---2---2---3---3---3---3-------3---3-----
g-----------------------2---2---2---2---2-------2-----------
d--------------------------------------------------------------
a--------------------------------------------------------------
e--------------------------------------------------------------

Biggest problem to me is the change between the 1 and 2 part in my first mail...but practise will solve that problem
Thanks again to those who helped me out
silenus is offline   Reply With Quote
Reply

Thread Tools Search this Thread
Search this Thread:

Advanced Search
Display Modes

Posting Rules
You may not post new threads
You may not post replies
You may not post attachments
You may not edit your posts

BB code is On
Smilies are On
[IMG] code is On
HTML code is Off
Trackbacks are Off
Pingbacks are Off
Refbacks are Off



All times are GMT -5. The time now is 12:22 AM.


Powered by vBulletin® Version 3.8.8 Beta 1
Copyright ©2000 - 2021, vBulletin Solutions, Inc.
Design, images and all things inclusive copyright © Interference.com
×