U2 Feedback

U2 Feedback (http://www.u2interference.com/forums/)
-   Lemonade Stand Archive (http://www.u2interference.com/forums/f287/)
-   -   ...and i know that i can make it, as long as somebody takes me to DESCRIBE (http://www.u2interference.com/forums/f287/and-i-know-that-i-can-make-it-as-long-as-somebody-takes-me-to-describe-165178.html)

discothequeLP 09-16-2006 02:09 PM

...and i know that i can make it, as long as somebody takes me to DESCRIBE
 
every now and then. . . :wink:


Code:

All I Want is You -- Live from Argentina 3/2/2006 (Tabbed by DiscothequeLP)


Set the delay at around 430. Remember to let the delay play.


Chords:
A: x 0 2 2 2 0
A*: x x x 14 14 12
Asus/D: x x 0 2 3 0
D: x x 0 2 3 2
D*: x x x 14 15 14
F#m: 2 4 4 2 2 2



Intro\Verse:

  A                      D
e|------------------------------------------------|
b|-------2--------2--------------3--------3-------|
g|----2--------2--------2-----2--------2-------2--|
d|-------------------------0--------0--------0----|
a|-0--------0--------0----------------------------|
E|------------------------------------------------|

You say                You want



Repeat that a few times, then go to this:


Pre-Chorus:

  F#m
e|----------2----------------------2----------|
b|----------------2-------------3--------3----|
g|-------2-----------2-------2--------------2-| 2x
d|----4-------------------0-----------0-------|
a|--------------------------------------------|
E|-2-----------2------------------------------|

All the promises      We make. . .


  A                      Asus/D
e|-------------------------------------0----------|
b|-------2--------2--------------3--------3-------|
g|----2--------2--------2-----2-----------------2-|
d|-------------------------0--------0--------0----|
a|-0--------0--------0----------------------------|
E|------------------------------------------------|

When all            I want                Is You



Then comes the main riff



Main Riff:
 
e|-0-0-0-0--0-0-0---2--2--0--0---2--|
b|-2-2-0-2--0-2-0---3--3--3--3---3--|
g|-2-2-2-2--2-2-2---2--2--2--2---2--| 2x
d|-2-2-2-2--2-2-2---0--0--0--0---0--|
a|-0-0-0-0--0-0-0-------------------|
E|----------------------------------|

To get this to sound right you have to let the delay ring out.



2nd Verse:

Edge plays something like this


e|----------------------------------------------------|
b|----10-------10-------10------10-------10-------10--|
g|--------9--------9----------------9--------9--------|
d|---------------------------0------------------------|
a|-0--------------------------------------------------|
E|----------------------------------------------------|

Repeat a few times then go to the Pre-Chorus and Chorus



After the 2nd chorus, Edge hits a big open A chord, then does this very loose riff:


Verse 3:

e|------0-------0-------0-------------0--------0-------0-|
b|--10-----10------10-----------8---------8--------8-----|
g|-------------------------------------------------------|
d|-------------------------------------------------------|
a|-------------------------------------------------------|
E|-------------------------------------------------------|


Then the Pre-Chorus and Chorus again, then the solo:


Solo:

Edge starts by strumming A* and D* chords, then goes into this riff (I'll only tab the top 2 strings)

e|-17----17----17----17----17----17---------17----17----17----17-----17----|
b|----14----14----14----14----14-----14/15-----15----15----15----15-----15-|  2x

e|-------17----17----17----17----17----17---17----17----17-----
b|-15/17----17----17----17----17----17---17----17----17----17--

e|-17-17-17-17--17-17-17-17-17--17-17-17-17-17---20-20-20-20--20-20-20-20-20--20-20-20-20-20--
b|-17-17-17-17--17-17-17-17-17--17-17-17-17-17---17-17-17-17--17-17-17-17-17--17-17-17-17-17--



Then some big open A and Asus/D chords, and the A* and D* chords again, and Edge plays the Verse 3 riff for the outro.


JanuaryStar 09-16-2006 02:10 PM

Nice one, Justin :drool: (talking about the title, then, the tab I don't know anything about whatsoever :no: )

waynetravis 09-16-2006 02:11 PM

thanks Justin :bow:

U2vertigofly 09-16-2006 02:11 PM

Justin is this still possiable to play if you have no effects/delay? :reject:

discothequeLP 09-16-2006 02:16 PM

^ it wouldn't sound right

U2vertigofly 09-16-2006 02:17 PM

^well what is a good REALLY CHEAP delay i can buy?

waynetravis 09-16-2006 02:18 PM

^^ delay is good :drool:

RavenBlue 09-16-2006 02:19 PM

Tab :drool:

JanuaryStar 09-16-2006 02:21 PM

All you people know tabs... :grumpy:

waynetravis 09-16-2006 02:22 PM

^^ wrong place! you want Temple Bar across the street there!

:lol:

RavenBlue 09-16-2006 02:23 PM

You could try getting a Zoom multi-effect pedal. That's what I use. They're usually quite reasonably priced, I think i got mine for about 80 buckaroonis.

Awww don't feel left out JanuaryStar. :hug:

Irishteen 09-16-2006 02:24 PM

< :wave:

discothequeLP 09-16-2006 02:24 PM

^^ yeah, i'd start with a Zoom Milti-effect or a Digitch Rp-80 or Rp-100. I had the Rp-100 and it's great to start off.

waynetravis 09-16-2006 02:25 PM

^^^ i've got a Zoom pedal :hyper:

JanuaryStar 09-16-2006 02:25 PM

^^^^ It's alright, RavenBlue :hug: And please, call me MJ :)

^^^ Hi John :wave:


All times are GMT -5. The time now is 02:44 AM.

Powered by vBulletin® Version 3.8.8 Beta 1
Copyright ©2000 - 2018, vBulletin Solutions, Inc.
Design, images and all things inclusive copyright © Interference.com