U2 Feedback

U2 Feedback (http://www.u2interference.com/forums/)
-   Even Better Than The Real Thing ?? (http://www.u2interference.com/forums/f197/)
-   -   Smile Tab (http://www.u2interference.com/forums/f197/smile-tab-133608.html)

Chizip 07-09-2005 10:11 PM

Smile Tab
 
Has anybody tabbed this beauty out?

Chizip 07-13-2005 09:40 PM

:sad:

Chizip 07-14-2005 05:56 PM

dLP im looking at you, youre the tab master

discothequeLP 07-14-2005 06:19 PM

Quote:

Originally posted by Chizip
dLP im looking at you, youre the tab master

thanks, chipper. . . i'll consider :wink:

discothequeLP 07-14-2005 06:41 PM

wow. . . that was fast!

Code:


Smile -- Tabbed by DiscothequeLP


This tab is really simple; it's only 2 riffs


Intro/Main Riff


e|-------------------------------------------------------
B|-------------------------------------------------------
G|-------------------------------------------------------
D|-6------6--7--9-----6------6--7--9------6------6--7--9-
A|-------------------------------------------------------
E|----0------------------0--------------------0-----------

e|------------------------|
B|------------------------|
G|------------------------|
D|-9/11--9---7-7--9p7--6--|
A|------------------------|
E|------------------------|



Second Riff

e|---------------------------------------------------------------------------|
B|---------------------------------------------------------------------------|
G|---------------------------------------------------------------------------|
D|-4------4------4----4-----4--2--4----4-----4-----4----4-----4-----4-----2--|
A|----0------0----------------------------0-----0----------0-----0-----------|
E|-----------------------2---------------------------------------------0-----|



play around with these two things -- Edge does alot of little improvisation.


have fun!


Chizip 07-14-2005 07:56 PM

:drool:

:applaud:


All times are GMT -5. The time now is 12:28 PM.

Powered by vBulletin® Version 3.8.8 Beta 1
Copyright ©2000 - 2018, vBulletin Solutions, Inc.
Design, images and all things inclusive copyright © Interference.com