Like a desert needs rain, Like DESCRIBE needs a name, I need your love - Page 26 - U2 Feedback

Go Back   U2 Feedback > Lypton Village > Lemonade Stand > Lemonade Stand Archive
Click Here to Login
 
 
Thread Tools Search this Thread Display Modes
 
Old 07-30-2006, 01:03 PM   #376
Blue Crack Addict
 
love_u2_adam's Avatar
 
Join Date: Dec 2005
Location: Heaven In Alberta, Where We Got All Hell For A Basement..
Posts: 22,307
Local Time: 08:17 PM
i know that's what im like
__________________

__________________
love_u2_adam is offline  
Old 07-30-2006, 01:04 PM   #377
Blue Crack Supplier
 
waynetravis's Avatar
 
Join Date: Dec 2005
Location: Hull, UK
Posts: 36,231
Local Time: 03:17 AM
^^ hang on then...


style 1

Code:
Solo:

2---18--18--18--17--15--15--15--15\13--13\11--11\10--10\8--

2---8--6--6h8--8--8--8--6--8--8b10--8--6--8--  (twice)

2---11p10p8--10--10--10--10--10--11p10p8--10--10--10--10--

2---11p10p8--8--6h8--8--8--8--6--6--8--8--11p10p8--10--10--10--11p10p8--10/
style 2:

Code:
   D/G                        Dsus2
e|-10-10--10h12p10---9h10p9---9-7-5-3-2-0---|
B|------------------------------------------|
G|------------------------------------------|
D|------------------------------------------|
A|------------------------------------------|
E|------------------------------------------|
        				     
					       
    Asus2        Asus2   
e|------------------------------------------|
B|--3h5-5---3-5-b7--5-3-5-------------------|
G|------------------------------------------|
D|------------------------------------------|
A|------------------------------------------|
E|------------------------------------------|



   D/G                        Dsus2
e|-10-10--10h12p10---9h10p9---9-7-5-3-2-0---|
B|------------------------------------------|
G|------------------------------------------|
D|------------------------------------------|
A|------------------------------------------|
E|------------------------------------------|


    Asus2        Asus2                (very fast)
e|------------------------------------3p2p0-|
B|--3h5-5---3-5-b7--5-3-5-------------------|
G|------------------------------------------|
D|------------------------------------------|
A|------------------------------------------|
E|------------------------------------------|


    D/G               Dsus2
e|--2-2--------3p2p0--2-2-------------3p2p0-|
B|------------------------------------------|
G|------------------------------------------|
D|------------------------------------------|
A|------------------------------------------|
E|------------------------------------------|


    Asus2        Asus2                
e|------------------------------------3p2p0-|
B|--3h5-5---3-5-b7--5-3-5-------------------|
G|------------------------------------------|
D|------------------------------------------|
A|------------------------------------------|
E|------------------------------------------|


    Bm                D             E
e|--2-2--------3p2p0--2-2--0-2h3/5--7-------|
B|------------------------------------------|
G|------------------------------------------|
D|------------------------------------------|
A|------------------------------------------|
E|------------------------------------------|
__________________

__________________
waynetravis is offline  
Old 07-30-2006, 01:10 PM   #378
ONE
love, blood, life
 
U2vertigofly's Avatar
 
Join Date: Mar 2006
Location: dinkin' flicka
Posts: 10,792
Local Time: 10:17 PM
^which one is that the one at the end or more twoard the middle?
__________________
U2vertigofly is offline  
Old 07-30-2006, 01:11 PM   #379
Blue Crack Addict
 
love_u2_adam's Avatar
 
Join Date: Dec 2005
Location: Heaven In Alberta, Where We Got All Hell For A Basement..
Posts: 22,307
Local Time: 08:17 PM



ahahah i have made it known to the world!!!!!!!!
__________________
love_u2_adam is offline  
Old 07-30-2006, 01:12 PM   #380
Blue Crack Supplier
 
waynetravis's Avatar
 
Join Date: Dec 2005
Location: Hull, UK
Posts: 36,231
Local Time: 03:17 AM
^^its the solo when Bono is kicking Edge's guitar

^
__________________
waynetravis is offline  
Old 07-30-2006, 01:12 PM   #381
ONE
love, blood, life
 
U2vertigofly's Avatar
 
Join Date: Mar 2006
Location: dinkin' flicka
Posts: 10,792
Local Time: 10:17 PM
^the end you mean

^^how?
__________________
U2vertigofly is offline  
Old 07-30-2006, 01:13 PM   #382
Blue Crack Addict
 
love_u2_adam's Avatar
 
Join Date: Dec 2005
Location: Heaven In Alberta, Where We Got All Hell For A Basement..
Posts: 22,307
Local Time: 08:17 PM
its official #52
__________________
love_u2_adam is offline  
Old 07-30-2006, 01:14 PM   #383
Blue Crack Supplier
 
waynetravis's Avatar
 
Join Date: Dec 2005
Location: Hull, UK
Posts: 36,231
Local Time: 03:17 AM
^^ yeah, the main solo

^ i saw
__________________
waynetravis is offline  
Old 07-30-2006, 01:20 PM   #384
Blue Crack Addict
 
love_u2_adam's Avatar
 
Join Date: Dec 2005
Location: Heaven In Alberta, Where We Got All Hell For A Basement..
Posts: 22,307
Local Time: 08:17 PM
its awesome
__________________
love_u2_adam is offline  
Old 07-30-2006, 01:23 PM   #385
ONE
love, blood, life
 
U2vertigofly's Avatar
 
Join Date: Mar 2006
Location: dinkin' flicka
Posts: 10,792
Local Time: 10:17 PM
^how do you know you're # 52?
__________________
U2vertigofly is offline  
Old 07-30-2006, 01:23 PM   #386
Blue Crack Supplier
 
waynetravis's Avatar
 
Join Date: Dec 2005
Location: Hull, UK
Posts: 36,231
Local Time: 03:17 AM
^^

blue crack addict to go with blue crack hoodie

^ look at member list and click top 50 posters
__________________
waynetravis is offline  
Old 07-30-2006, 01:25 PM   #387
ONE
love, blood, life
 
U2vertigofly's Avatar
 
Join Date: Mar 2006
Location: dinkin' flicka
Posts: 10,792
Local Time: 10:17 PM
^i can't do that
__________________
U2vertigofly is offline  
Old 07-30-2006, 01:26 PM   #388
Blue Crack Addict
 
love_u2_adam's Avatar
 
Join Date: Dec 2005
Location: Heaven In Alberta, Where We Got All Hell For A Basement..
Posts: 22,307
Local Time: 08:17 PM
^^aye ya!!!!!!!!

^^he cant see only premium members cani think!!!!
__________________
love_u2_adam is offline  
Old 07-30-2006, 01:27 PM   #389
Blue Crack Supplier
 
waynetravis's Avatar
 
Join Date: Dec 2005
Location: Hull, UK
Posts: 36,231
Local Time: 03:17 AM
^ oooh, lucky us then, eh?!!!!
__________________
waynetravis is offline  
Old 07-30-2006, 01:27 PM   #390
Blue Crack Addict
 
love_u2_adam's Avatar
 
Join Date: Dec 2005
Location: Heaven In Alberta, Where We Got All Hell For A Basement..
Posts: 22,307
Local Time: 08:17 PM
aye

eh?
__________________

__________________
love_u2_adam is offline  
 

Thread Tools Search this Thread
Search this Thread:

Advanced Search
Display Modes

Posting Rules
You may not post new threads
You may not post replies
You may not post attachments
You may not edit your posts

BB code is On
Smilies are On
[IMG] code is On
HTML code is Off
Trackbacks are Off
Pingbacks are Off
Refbacks are Off



All times are GMT -5. The time now is 09:17 PM.


Powered by vBulletin® Version 3.8.8 Beta 1
Copyright ©2000 - 2017, vBulletin Solutions, Inc.
Design, images and all things inclusive copyright © Interference.com