I can't tell you how I feel - U2 Feedback

Go Back   U2 Feedback > Lypton Village > Lemonade Stand > Lemonade Stand Archive
Click Here to Login
 
 
Thread Tools Search this Thread Display Modes
 
Old 02-10-2008, 09:16 AM   #1
'
 
Join Date: Oct 2006
Posts: 82
Local Time: 02:38 PM
I can't tell you how I feel

My heart is like a wheel
let me roll it
let me roll it to you...
__________________

__________________
bob dylan is offline  
Old 02-10-2008, 11:15 AM   #2
Refugee
 
Dorian Gray's Avatar
 
Join Date: Sep 2001
Location: Nova Scotia
Posts: 1,520
Local Time: 07:38 PM
McCartney channeling Lennon...
__________________

__________________
Dorian Gray is offline  
Old 02-10-2008, 11:20 AM   #3
Blue Crack Distributor
 
corianderstem's Avatar
 
Join Date: Dec 2002
Location: Seattle
Posts: 63,700
Local Time: 11:38 AM
Shouldn't you be quoting your own songs or something?
__________________
corianderstem is offline  
Old 02-10-2008, 03:26 PM   #4
Blue Crack Supplier
 
Join Date: May 2006
Posts: 30,343
Local Time: 02:38 PM
You're not there.
__________________
phillyfan26 is offline  
Old 02-10-2008, 03:27 PM   #5
The Male
 
LemonMelon's Avatar
 
Join Date: Aug 2004
Location: Hollywoo
Posts: 65,789
Local Time: 11:38 AM
*manic guitar line that plays over and over*
__________________


Now.
LemonMelon is online now  
Old 02-10-2008, 05:09 PM   #6
ONE
love, blood, life
 
Zoomerang96's Avatar
 
Join Date: Jun 2000
Location: canada
Posts: 13,459
Local Time: 01:38 PM
i read on the onion.com that your son jacob believes he's better than you.

do you agree?
__________________
Zoomerang96 is offline  
Old 02-10-2008, 07:45 PM   #7
ONE
love, blood, life
 
Canadiens1131's Avatar
 
Join Date: Aug 2004
Posts: 10,363
Local Time: 03:38 PM
__________________
Canadiens1131 is offline  
Old 02-10-2008, 08:10 PM   #8
Blue Crack Addict
 
Join Date: Dec 2003
Posts: 26,955
Local Time: 11:38 AM
Re: I can't tell you how I feel

Quote:
Originally posted by bob dylan
My heart is like a wheel
let me roll it
let me roll it to you...
I just listened to that. Odd.
__________________
the tourist is offline  
Old 02-10-2008, 08:15 PM   #9
Blue Crack Supplier
 
Zoots's Avatar
 
Join Date: Aug 2002
Location: the great beyond
Posts: 36,802
Local Time: 09:38 PM


*steals Canadiens' smiley*

















































__________________
Zoots is offline  
Old 02-10-2008, 08:52 PM   #10
'
 
Join Date: Oct 2006
Posts: 82
Local Time: 02:38 PM
talking about yourself is boring.
__________________
bob dylan is offline  
Old 02-10-2008, 08:54 PM   #11
'
 
Join Date: Oct 2006
Posts: 82
Local Time: 02:38 PM
G-------------|-------------------|---------------|---------------|
D---------2-4-|-------2-4-4/6-4-2-|-------------2-|-------------2-|
A---0---4-----|-0---4-------------|-----------4---|-----------4---|
E-------------|-------------------|-0---4-5-------|-0---4-5-------|


G-----------------|---------------|---------------|
D---------------2-|-------------2-|---------------|
A-------------4---|-----------4---|---------------|
E---0---4-5-------|-0---4-5-------|-0-0-0-0-0-0-0-|


G---------------------------------------------------------------------
D---------------------------------------------------------------------
A---------------------------------------------------------------------
E---0-2---0---0---2---2---0---0---2---2---0---0---2---2---4-5-5-5-52-


G-----------------------------------------|-------------------|
D---2-4-4-4-42-------------2-4-4-4/6-4-2-|---------------2-4-|
A-----------------------------------------|-------2-----4-----|
E---------------4/5-5-5-52---------------|-0---4---5---------|


G-----------------|-------------|---------------|---------------|
D---------------2-|-----------2-|-------------2-|---------------|
A-------------4---|---------4---|-----------4---|---------------|
E---0---4-5-5-----|-0---4-5-----|-0---4-5-5-----|-0-0-0-0-0-0-0-|


G---------------------------------------------------------------------------|
D-----------------------------------------------------------------2-4---4-4-|
A---------------------------------------------------------------------------|
E---0-2---0---0---2---2---0---0---2---2---0---0---2---2---4-5-5-5-----------|


G-----------------------|-----------------|-------------|-------------|
D-----------2-4-4/6-4-2-|---------------2-|-----------2-|-----------2-|
A-----------------------|-------2-----4---|---------4---|---------4---|
E---5-5---5-------------|-0---4---5-------|-0---4-5-----|-0---4-5-----|


G---------------|---------------|
D-------------2-|---------------|
A-----------4---|---------------|
E---0---4-5-----|-0-0-0-0-0-0-0-|


G---------------------------------------------------------------------------|
D-------------------------------------------------------------------2-4---2-|
A-----------------------------------------------------------------4---------|
E---0-2---0---0---2---2---0---0---2---2---0---0---2---2---4-5---5-----------|



G---------------------|-----------------|-------------------|-------------------|
D---------2-4-4/6-4-2-|---------------2-|-----------------2-|-----------------2-|
A---------------------|-------------4---|---------------4---|---------------4---|
E---5-5-5-------------|-0---0-4-5-5-----|-0---0-4-5---5-----|-0---0-4-5---5-----|


G-------------------------|---------------|
D---------------------2-4-|---------------|
A-----------2-------4-----|---------------|
E---0---0-4---5---5-------|-0-0-0-0-0-0-0-|


G-------------------------------------------------------------------------|
D-------------------------------------------------------------------2-4-2-|
A-----------------------------------------------------------------4-------|
E---0-2---0---0---2---2---0---0---2---2---0---0---2---2---4-5-52---------|


G---------------------|-----------------|-------------------|
D---------2-4-4/6-4-2-|---------------2-|-----------------2-|
A---------------------|-------------4---|---------------4---|
E---4-5-5-------------|-0---0-4-5-5-----|-0---0-4-5---5-----|


G---------------------|-----------------------|---------------|
D-------------------2-|-------------------2-4-|---------------|
A-----------------4---|---------2-------4-----|---------------|
E---0---0-4-5---5-----|-0---0-4---5---5-------|-0-0-0-0-0-0-0-|


G-------------------------------------------------------------|
D-------------------------------------------------------------|
A-------------------------------------------------------------|
E---0-2-0-2---0-2-3-4---0---0---2---2---0---0---2---2---0---0-|
__________________
bob dylan is offline  
Old 02-10-2008, 09:18 PM   #12
Sizzlin' Sicilian
Forum Administrator
 
Sicy's Avatar
 
Join Date: Jan 2001
Location: Bay Area, CA
Posts: 69,297
Local Time: 11:38 AM
__________________
Sicy is offline  
Old 02-10-2008, 10:11 PM   #13
'
 
Join Date: Oct 2006
Posts: 82
Local Time: 02:38 PM
Sicy slays me.
__________________
bob dylan is offline  
Old 02-10-2008, 10:12 PM   #14
'
 
Join Date: Oct 2006
Posts: 82
Local Time: 02:38 PM
Quote:
Originally posted by Zoomerang96
i read on the onion.com that your son jacob believes he's better than you.

do you agree?
link?
__________________
bob dylan is offline  
Old 02-10-2008, 10:52 PM   #15
ONE
love, blood, life
 
Canadiens1131's Avatar
 
Join Date: Aug 2004
Posts: 10,363
Local Time: 03:38 PM
WAT.
__________________

__________________
Canadiens1131 is offline  
 

Thread Tools Search this Thread
Search this Thread:

Advanced Search
Display Modes

Posting Rules
You may not post new threads
You may not post replies
You may not post attachments
You may not edit your posts

BB code is On
Smilies are On
[IMG] code is On
HTML code is Off
Trackbacks are Off
Pingbacks are Off
Refbacks are Off



All times are GMT -5. The time now is 02:38 PM.


Powered by vBulletin® Version 3.8.8 Beta 1
Copyright ©2000 - 2017, vBulletin Solutions, Inc.
Design, images and all things inclusive copyright © Interference.com