Zoo TV RTSS question - U2 Feedback

Go Back   U2 Feedback > Your Blue Room > Even Better Than The Real Thing ??
Click Here to Login
Reply
 
Thread Tools Search this Thread Display Modes
 
Old 09-10-2007, 10:41 PM   #1
Refugee
 
europop2005's Avatar
 
Join Date: Mar 2006
Posts: 2,420
Local Time: 10:50 PM
Zoo TV RTSS question

what is the tab for Zoo TV RTSS during the "singing ah la la de day..." part
__________________

europop2005 is offline   Reply With Quote
Old 11-30-2007, 12:54 PM   #2
Babyface
 
fuhuchs's Avatar
 
Join Date: Feb 2006
Posts: 21
Local Time: 04:50 AM
Hi!
Here's what he plays:

-----------------------12---------
-----------14-------------14-----
--12/14-------14------------14-
------------------------------------
------------------------------------
------------------------------------

-----------------------10---------
-----------12-------------12-----
--12-----------12------------12-
------------------------------------
------------------------------------
------------------------------------

Then back to the intro riff and the verse.
__________________

fuhuchs is offline   Reply With Quote
Old 08-28-2008, 10:32 AM   #3
Refugee
 
Ronnie269's Avatar
 
Join Date: Jul 2008
Location: Killiney, Vico Road
Posts: 1,748
Local Time: 03:50 AM
does anybody have or know where i can get the full tab??
Ronnie269 is offline   Reply With Quote
Old 09-02-2008, 12:29 AM   #4
ONE
love, blood, life
 
GibsonGirl's Avatar
 
Join Date: Jun 2002
Posts: 13,270
Local Time: 10:50 PM
Quote:
Originally Posted by Ronnie269 View Post
does anybody have or know where i can get the full tab??
I've tabbed out a bit for you - this was done quickly and from memory, as I'm in a rush (back to university tomorrow, ugh), so I apologise in advance if anything is incorrect. I might tab a full version later that includes all of Edge's variations, a la the Sydney DVD. I personally improvise a bit when I play the song...Edge never played it the same way every night either, so I figure I don't have to stay true to every bootleg I hear.

Here is the intro riff. It is repeated in slight variations throughout the song:

Code:
e|-10-10-10-10----10-10-------10-----10----| 
B|-10-12-12-12b13-12-10---10-----10-----10-|  
G|----------------------11--11-----11------| 
D|-----------------------------------------|  
A|-----------------------------------------|  
E|-----------------------------------------|

e|-10-10-10-10----10-10-------10-----10-------10-------| 
B|-10-12-12-12b13-12-10---10-----10-----10-------10----|  
G|----------------------12--12-----12------12-------12-| 
D|-----------------------------------------------------|  
A|-----------------------------------------------------|  
E|-----------------------------------------------------|
Verses typically look like this. Add a few open D notes in every now and then (there's no set pattern to the open notes, so I didn't include them here):

Code:
e|-------10-------10-------10---------------| 
B|---10-------10-------10-------10----------| 
G|-11--11---11--11---11--11---11--11...-----| 
D|------------------------------------------| 
A|------------------------------------------|  
E|------------------------------------------|

e|-------10-------10-------10---------------| 
B|---10-------10-------10-------10----------| 
G|-12--12---12--12---12--12---12--12...-----| 
D|------------------------------------------| 
A|------------------------------------------|  
E|------------------------------------------|
Edge often combines the above arpeggioed notes into chords - particularly towards the end of the song. He sometimes throws in this riff as well:

Code:
e|-------------------------| 
B|-13---12-12-10-10-12-10--| 
G|-12---12-12-11-11-12-11--| 
D|-------------------------| 
A|-------------------------|  
E|-------------------------|
At certain points (particularly the "cry without weeping" line), he does a few hammer-ons and sometimes combines it with the previous riff, like so:

Code:
e|-10---10----10--------------------10-----------10---------------------------------| 
B|-10---10----10----10---10----10---10--------10----10------13---12-12-10-10-12-10--| 
G|-11---11----11h12-11---11h12-11---11--11h12----------12---12---12-12-11-11-12-11--| 
D|-0--0-----0-------0----0-----0--0-------------------------------------------------| 
A|----------------------------------------------------------------------------------| 
E|----------------------------------------------------------------------------------|

Then there's the bit that fuhuchs tabbed. Edge varies the way he plays that, as well.

And that's the song, basically! I hope I haven't forgotten any key sections...just play around with that for a bit and you should be able to get a feel for the song.
GibsonGirl is offline   Reply With Quote
Old 09-02-2008, 11:18 AM   #5
Refugee
 
Ronnie269's Avatar
 
Join Date: Jul 2008
Location: Killiney, Vico Road
Posts: 1,748
Local Time: 03:50 AM
Thank you soooo much GibsonGirl, ,
sounds great
Ronnie269 is offline   Reply With Quote
Old 09-03-2008, 02:39 PM   #6
ONE
love, blood, life
 
GibsonGirl's Avatar
 
Join Date: Jun 2002
Posts: 13,270
Local Time: 10:50 PM
My pleasure.
__________________

GibsonGirl is offline   Reply With Quote
Reply

Thread Tools Search this Thread
Search this Thread:

Advanced Search
Display Modes

Posting Rules
You may not post new threads
You may not post replies
You may not post attachments
You may not edit your posts

BB code is On
Smilies are On
[IMG] code is On
HTML code is Off
Trackbacks are Off
Pingbacks are Off
Refbacks are Off



All times are GMT -5. The time now is 09:50 PM.


Powered by vBulletin® Version 3.8.8 Beta 1
Copyright ©2000 - 2019, vBulletin Solutions, Inc.
Design, images and all things inclusive copyright © Interference.com
×