Zoo station chorus - U2 Feedback

Go Back   U2 Feedback > Your Blue Room > Even Better Than The Real Thing ??
Click Here to Login
Reply
 
Thread Tools Search this Thread Display Modes
 
Old 08-26-2007, 04:29 PM   #1
The Fly
 
finnsmith's Avatar
 
Join Date: Dec 2005
Posts: 33
Local Time: 07:46 PM
Zoo station chorus

Anybody has some accurate tab of Zoo station chorus? I've tried to figure on my own, and even watching videos, but don't seem to get it. Thank you.
__________________

finnsmith is offline   Reply With Quote
Old 08-26-2007, 05:28 PM   #2
Acrobat
 
Barkeeper's Avatar
 
Join Date: Feb 2006
Location: Netherlands, Hilversum
Posts: 394
Local Time: 06:46 PM
e-----------10---------------------10-----------
b-----8---------8---8-----8------------8---8/3
g--7----7--------------7-----7-------------------
d--------------------------------------------------
a--------------------------------------------------
e---------------------------------------------------

e---------------5-----------------------5--------
b-------3-----------3---3------3----------3-----
g---2------2----------------2------3-------------
d--------------------------------------------------
a--------------------------------------------------
e--------------------------------------------------
I have no guitar right now, but I'm pretty sure that's it. Repeat that and play a bit with it.
__________________

Barkeeper is offline   Reply With Quote
Old 08-27-2007, 12:48 AM   #3
Blue Crack Supplier
 
Join Date: May 2006
Posts: 30,343
Local Time: 01:46 PM
Play this twice for the intro and first two choruses, and a few times longer on the last chorus.

e-----------------12--------------------12----------------12---------------
b------10-----------------------10-------------------10---------------10--
g------------9-------------9---------------------9----------------9---------
d-12-------------------------------------------------------------------------
e-----------------------------------------------------------------------------
a-----------------------------------------------------------------------------

e-----------------12--------------------12----------------12---------------
b------10-----------------------10-------------------10---------------10--
g------------9-------------9---------------------9----------------9---------
d-11-------------------------------------------------------------------------
e-----------------------------------------------------------------------------
a-----------------------------------------------------------------------------
phillyfan26 is offline   Reply With Quote
Old 08-28-2007, 09:36 AM   #4
The Fly
 
finnsmith's Avatar
 
Join Date: Dec 2005
Posts: 33
Local Time: 07:46 PM
Thank you, both of you. The second one seems to be better, as i saw photos of edge playing around the 12 fret. Thank you.
finnsmith is offline   Reply With Quote
Old 09-12-2007, 04:59 AM   #5
Refugee
 
kingofsorrow's Avatar
 
Join Date: Aug 2002
Location: C.E.O. of the international men of leisure
Posts: 2,188
Local Time: 01:46 PM
i have no idea what you guys are talking about, but it is cool.
kingofsorrow is offline   Reply With Quote
Old 09-15-2007, 09:17 AM   #6
Blue Crack Supplier
 
Join Date: May 2006
Posts: 30,343
Local Time: 01:46 PM
Quote:
Originally posted by kingofsorrow
i have no idea what you guys are talking about, but it is cool.
The tab for the chorus of Zoo Station. You can only hear it actually during the live versions. The studio version kind of technoes the guitar out on the chorus.
phillyfan26 is offline   Reply With Quote
Old 09-29-2007, 05:32 PM   #7
The Fly
 
finnsmith's Avatar
 
Join Date: Dec 2005
Posts: 33
Local Time: 07:46 PM
Looks like i had a chance with the Hershey rehearsals, that has real bad quality, but lets the guitar be heard quite nice, and it seems to me to be this way:

e--------12----------12----------12----------12
B---10----------10---------10----------10-----
G--------------------------------------------------
D12--12----------12----------12----------12--

--------12----------12----------12----------12
---10----------10---------10----------10-----
--------------------------------------------------
11--11----------11----------11----------11--
__________________

finnsmith is offline   Reply With Quote
Reply

Thread Tools Search this Thread
Search this Thread:

Advanced Search
Display Modes

Posting Rules
You may not post new threads
You may not post replies
You may not post attachments
You may not edit your posts

BB code is On
Smilies are On
[IMG] code is On
HTML code is Off
Trackbacks are Off
Pingbacks are Off
Refbacks are Off



All times are GMT -5. The time now is 01:46 PM.


Powered by vBulletin® Version 3.8.8 Beta 1
Copyright ©2000 - 2019, vBulletin Solutions, Inc.
Design, images and all things inclusive copyright © Interference.com
×