Your Blue Room - U2 Feedback

Go Back   U2 Feedback > Your Blue Room > Even Better Than The Real Thing ??
Click Here to Login
Reply
 
Thread Tools Search this Thread Display Modes
 
Old 06-10-2010, 07:45 PM   #1
Refugee
 
europop2005's Avatar
 
Join Date: Mar 2006
Posts: 2,420
Local Time: 11:37 AM
Your Blue Room

Does anyone have the chords? Or the tabs to that neat little solo?
__________________

europop2005 is offline   Reply With Quote
Old 06-11-2010, 01:25 AM   #2
Rock n' Roll Doggie
FOB
 
Edge_Orchestra's Avatar
 
Join Date: May 2007
Location: * The Edge's Guitar Storage Room *
Posts: 8,569
Local Time: 03:37 PM
Quote:
Originally Posted by europop2005 View Post
Does anyone have the chords? Or the tabs to that neat little solo?

"Your Blue Room" from U2 Station tablature section:
U2Station.com | U2 Tablature | Guitar Tablature | Your Blue Room

Pretty sure that was played on a hollowbody of some sort... Gretsch Country Gent... perhaps Bono's cadillac green finish Gretsch Country Club. Fairly clean tone with some reverb and you should be in "your blue room" tone territory.


solo:
1-------------------------------------------------------------------
2-------------------------------------------------------------------
3-------------------------------------------------------------------
4-------------------------------------------------------------------
5-------------------------------------------------------------------
6---0---0h3h5-----0---3---5------5---5---3---3-----3---0-----0h3p0--

1-------------------------------------------------
2-------------------------------------------------
3-------------------------------------------------
4-------------------------------------------------
5-------------------------------------------------
6---0---3---5------0h3h5---0h3h5---5---5---3---3--

1------------------------------------------------
2---8b10r----------------------------------------
3---------------7p5h7---7p5h7---7p5h7------------
4---------------------------------------------7--
5------------------------------------------------
6------------------------------------------------
__________________

Edge_Orchestra is offline   Reply With Quote
Old 08-21-2010, 05:13 PM   #3
Refugee
 
JamietheEdgefan's Avatar
 
Join Date: Jun 2010
Location: London
Posts: 1,640
Local Time: 03:37 PM
I think the chords that are played on organ and piano are
A minor, G, B flat, F
...Repeated
JamietheEdgefan is online now   Reply With Quote
Reply

Thread Tools Search this Thread
Search this Thread:

Advanced Search
Display Modes

Posting Rules
You may not post new threads
You may not post replies
You may not post attachments
You may not edit your posts

BB code is On
Smilies are On
[IMG] code is On
HTML code is Off
Trackbacks are Off
Pingbacks are Off
Refbacks are Off



All times are GMT -5. The time now is 10:37 AM.


Powered by vBulletin® Version 3.8.8 Beta 1
Copyright ©2000 - 2019, vBulletin Solutions, Inc.
Design, images and all things inclusive copyright © Interference.com
×