Whose Gonna Ride Your Wile Horses (Live) - U2 Feedback

Go Back   U2 Feedback > Your Blue Room > Even Better Than The Real Thing ??
Click Here to Login
Reply
 
Thread Tools Search this Thread Display Modes
 
Old 02-26-2008, 12:34 PM   #1
Refugee
 
The_Pac_Mule's Avatar
 
Join Date: Feb 2007
Location: Vermont
Posts: 1,346
Local Time: 05:55 PM
Whose Gonna Ride Your Wile Horses (Live)

There are few tabs for this song, and none live. Does anyone have a good tab for the live version, by which I mean the version? thanks!
__________________

The_Pac_Mule is offline   Reply With Quote
Old 03-17-2008, 02:24 AM   #2
War Child
 
ultraviolet92's Avatar
 
Join Date: May 2007
Location: Australia
Posts: 672
Local Time: 07:55 AM
of what tour may i ask?
__________________

ultraviolet92 is offline   Reply With Quote
Old 03-17-2008, 08:41 AM   #3
Galeonbroad
 
Galeongirl's Avatar
 
Join Date: Oct 2005
Location: Schoo Fishtank
Posts: 70,778
Local Time: 11:55 PM
well, the youtube link he provides is obviously ZooTv..
__________________
Quote:
Originally Posted by GraceRyan View Post
And if U2 EVER did Hawkmoon live....and the version from the Lovetown Tour, my uterus would leave my body and fling itself at Bono - for realz.
Don't worry baby, it's gonna be all right. Uncertainty can be a guiding light...
Galeongirl is offline   Reply With Quote
Old 03-18-2008, 02:22 AM   #4
War Child
 
ultraviolet92's Avatar
 
Join Date: May 2007
Location: Australia
Posts: 672
Local Time: 07:55 AM
oh sorry um yeh its the same as the original but a semitone lower in tuning
do u want the tab for what edge is playing?
ultraviolet92 is offline   Reply With Quote
Old 03-18-2008, 07:42 AM   #5
Refugee
 
Pero's Avatar
 
Join Date: Sep 2004
Location: Zagreb, Croatia
Posts: 2,089
Local Time: 11:55 PM
yes
Pero is offline   Reply With Quote
Old 03-20-2008, 08:53 PM   #6
Refugee
 
The_Pac_Mule's Avatar
 
Join Date: Feb 2007
Location: Vermont
Posts: 1,346
Local Time: 05:55 PM
yes please
The_Pac_Mule is offline   Reply With Quote
Old 03-25-2008, 01:43 AM   #7
War Child
 
ultraviolet92's Avatar
 
Join Date: May 2007
Location: Australia
Posts: 672
Local Time: 07:55 AM
ok let me work it out it may take a while
ultraviolet92 is offline   Reply With Quote
Old 03-25-2008, 06:37 PM   #8
Refugee
 
Pero's Avatar
 
Join Date: Sep 2004
Location: Zagreb, Croatia
Posts: 2,089
Local Time: 11:55 PM
take your time man,thanks
i've always wondered how to play it
Pero is offline   Reply With Quote
Old 03-27-2008, 06:32 PM   #9
Refugee
 
Muad'zin's Avatar
 
Join Date: Mar 2001
Location: Nijmegen, the Netherlands
Posts: 1,381
Local Time: 09:55 PM
Don't take this as sarcasm, but nobody knows how to use their ears anymore?
Muad'zin is offline   Reply With Quote
Old 03-28-2008, 08:42 AM   #10
Galeonbroad
 
Galeongirl's Avatar
 
Join Date: Oct 2005
Location: Schoo Fishtank
Posts: 70,778
Local Time: 11:55 PM
If you've never learned how to play using your ears it's very hard to just do it out of nowhere...
I'm learning it playing bass, but it'll take a long time until Ic an start playing songs by ear..
__________________
Quote:
Originally Posted by GraceRyan View Post
And if U2 EVER did Hawkmoon live....and the version from the Lovetown Tour, my uterus would leave my body and fling itself at Bono - for realz.
Don't worry baby, it's gonna be all right. Uncertainty can be a guiding light...
Galeongirl is offline   Reply With Quote
Old 03-29-2008, 04:59 AM   #11
War Child
 
ultraviolet92's Avatar
 
Join Date: May 2007
Location: Australia
Posts: 672
Local Time: 07:55 AM
well ive never had a guitar lesson ever and ive learnt by ear for six years and i play at fairs and bars so i think u can work out stuff by ear
ultraviolet92 is offline   Reply With Quote
Old 03-29-2008, 05:00 AM   #12
War Child
 
ultraviolet92's Avatar
 
Join Date: May 2007
Location: Australia
Posts: 672
Local Time: 07:55 AM
although i learnt piano lessons b4 that and that helped me picked up the guitar so now i play guitar and i quit piano but i play occasionally
ultraviolet92 is offline   Reply With Quote
Old 04-03-2008, 03:48 AM   #13
War Child
 
ultraviolet92's Avatar
 
Join Date: May 2007
Location: Australia
Posts: 672
Local Time: 07:55 AM
i know what hes playing in the verses but the choruses are really hard to pick up by ear

can anyone reccomend where i can write tabs down easy??? because ive never really gotten into writing them down myself
thanks heaps
pat
ultraviolet92 is offline   Reply With Quote
Old 04-04-2008, 04:13 PM   #14
Refugee
 
The_Pac_Mule's Avatar
 
Join Date: Feb 2007
Location: Vermont
Posts: 1,346
Local Time: 05:55 PM
ususally I just type it, maybe if you go onto google you can search for images of blank tablatures and print them out
The_Pac_Mule is offline   Reply With Quote
Old 04-10-2008, 05:34 AM   #15
War Child
 
ultraviolet92's Avatar
 
Join Date: May 2007
Location: Australia
Posts: 672
Local Time: 07:55 AM
ok i dont know how to play the chorus only the verses

shall i post??
ultraviolet92 is offline   Reply With Quote
Old 04-11-2008, 03:20 PM   #16
Refugee
 
The_Pac_Mule's Avatar
 
Join Date: Feb 2007
Location: Vermont
Posts: 1,346
Local Time: 05:55 PM
I guess thats good enough for now go ahead
The_Pac_Mule is offline   Reply With Quote
Old 04-15-2008, 08:32 AM   #17
War Child
 
ultraviolet92's Avatar
 
Join Date: May 2007
Location: Australia
Posts: 672
Local Time: 07:55 AM
ok well he obviously has some kind of heavy overdrive on so let notes ring and listen to song for timing and also tune guitar down half a step
your dangerous
e-----------------------------------------------------------------------------
B-----------------------------------------------------------------------------
G-----------------------------------------------------------------------------
D-----------------------------------------------------------------------------
A----------------3-----------------3---2-----------0-------------------------
E--3------------------------------------------3-----------3----------------------


cause your honest, your dangerous
e-----------------------------------------------------------------------------
B-----------------------------------------------------------------------------
G-----------------------------------------------------------------------------
D-----------------------------------------------------------------------------
A-----------------------------------------------------------------------------
E--------------------------------------------------3---------------------------

coz you don’t know what you want
e-----------------------------------------------------------------------------
B-----------------------------------------------------------------------------
G-----------------------------------------------------------------------------
D-----------------------------------------------------------------------------
A------------------------------------------3-----------------------------------
E-----------------------------------------------------------------------------

well you left my heart empty as a vacant lot
e-----------------------------------------------------------------------------
B-----------------------------------------------------------------------------
G-----------------------------------------------------------------------------
D-----------------------------------------------------------------------------
A----------------------------5-----------3--------------------------------------
E-----------3------------------------------------------------------------------

for any, spirit to haunt
e-----------------------------------------------------------------------------
B-----------------------------------------------------------------------------
G-----------------------------------------------------------------------------
D-----------------------------------------------------------------------------
A-----------------5------------3------2----------0--------------------------
E-------3------------------------------------3----------------------------------

hey hey sha la la, hey sha la la
e-----------------------------------------------------------------------------
B-----------------------------------------------------------------------------
G-----------------------------------------------------------------------------
D-----------------------------------------------------------------------------
A------5-----------------------------------------------------------------
E-----------------------------------------------------------------------------

Your an accident waiting to happen
e-----------------------------------------------------------------------------
B-----------------------------------------------------------------------------
G-----------------------------------------------------------------------------
D-----------------------------------------------------------------------------
A-----------------------------------------3------------------------------
E--------------3---------------------------------------------------------------

You’re a piece of glass left there on the beach
e-----------------------------------------------------------------------------
B-----------------------------------------------------------------------------
G-----------------------------------------------------------------------------
D-----------------------------------------------------------------------------
A------------------------------------------------3-----------------------
E--------------3---------------------------------------------------------------

Well you tell me things I know your not supposed to
e-----------------------------------------------------------------------------
B-----------------------------------------------------------------------------
G-----------------------------------------------------------------------------
D-----------------------------------------------------------------------------
A--------------------------------------5--------------3-------------------
E--------------3---------------------------------------------------------------

Then you leave me just out of reach
e-----------------------------------------------------------------------------
B-----------------------------------------------------------------------------
G-----------------------------------------------------------------------------
D-----------------------------------------------------------------------------
A------------------------5--------------3---2----------0--------------------
E--------------3----------------------------------3-----------------------------


Hey, Hey Sha La La Hey Hey Sha La La

e-----------------------------------------------------------------------------
B-----------------------------------------------------------------------------
G-----------------------------------------------------------------------------
D-----------------------------------------------------------------------------
A--5---------------------------------5------------------------------------
E-----------------------------------------------------------------------------


i will try and post rest later i just dont have much time atm
ultraviolet92 is offline   Reply With Quote
Old 04-16-2008, 03:07 AM   #18
War Child
 
ultraviolet92's Avatar
 
Join Date: May 2007
Location: Australia
Posts: 672
Local Time: 07:55 AM
shit sorry i stuffed up the first line its e string 3 fret the whole way

e-----------------------------------------------------------------------------
B-----------------------------------------------------------------------------
G-----------------------------------------------------------------------------
D-----------------------------------------------------------------------------
A------------------------------------------------------------------------
E-------------3----------------------------------------------------------------
ultraviolet92 is offline   Reply With Quote
Old 04-16-2008, 03:15 AM   #19
War Child
 
ultraviolet92's Avatar
 
Join Date: May 2007
Location: Australia
Posts: 672
Local Time: 07:55 AM
the first line i showed on my first post was what he plays befor bono starts singing
__________________

ultraviolet92 is offline   Reply With Quote
Reply

Thread Tools Search this Thread
Search this Thread:

Advanced Search
Display Modes

Posting Rules
You may not post new threads
You may not post replies
You may not post attachments
You may not edit your posts

BB code is On
Smilies are On
[IMG] code is On
HTML code is Off
Trackbacks are Off
Pingbacks are Off
Refbacks are Off



All times are GMT -5. The time now is 04:55 PM.


Powered by vBulletin® Version 3.8.8 Beta 1
Copyright ©2000 - 2019, vBulletin Solutions, Inc.
Design, images and all things inclusive copyright © Interference.com
×