WANTED: The Sweetest Thing Chords - U2 Feedback

Go Back   U2 Feedback > Your Blue Room > Even Better Than The Real Thing ??
Click Here to Login
Reply
 
Thread Tools Search this Thread Display Modes
 
Old 01-23-2005, 11:21 AM   #1
The Fly
 
EnjoyTheSurface's Avatar
 
Join Date: Nov 2004
Location: It's not where you're born, it's where you belong!
Posts: 245
Local Time: 10:19 PM
WANTED: The Sweetest Thing Chords

Anybody?
__________________

EnjoyTheSurface is offline   Reply With Quote
Old 01-25-2005, 03:29 AM   #2
Rock n' Roll Doggie
Band-aid
 
The_Edge89's Avatar
 
Join Date: Jul 2003
Location: Sweden Northwest of Dancing ZooTV
Posts: 4,069
Local Time: 02:19 AM
Code:


SWEETEST THING
--------------
U2

Tabbed by jules.

Here's the main bits for the new verison of Sweetest thing.

Main chords:

C C C C G.. F F

Chours:

Dm  Dm/C   G   G

Intro harmonic, with delay:
E--<12>--------------------------------------------
B--------------------------------------------------
G--------------------------------------------------
D--------------------------------------------------
A--------------------------------------------------
E--------------------------------------------------

Slide guitar (ad lib with this later on):
E-------10------12--------13\12\10\8---------------
B--------------------------------------------------
G----/10-----/12-------/14-------------------------
D--------------------------------------------------
A--------------------------------------------------
E--------------------------------------------------


This is the 'solo', repeat a few times:
E-------------------8------------------------------
B------------8---------8---------------------------
G-----9h10p9----10--------10--9--------------------
D--10----------------------------------------------
A--------------------------------------------------
E--------------------------------------------------

That's about it as far as guitar goes, apart from the
ad lib slides near the end (just play around with the
notes given) and the piano obviously.

Cheers,

jules (jules153@hotmail.com)

p.s. Dm/C   X 3 0 2 3 1

----
__________________

The_Edge89 is offline   Reply With Quote
Old 08-21-2013, 07:00 PM   #3
Babyface
 
celticfc09's Avatar
 
Join Date: Nov 2010
Location: the inner circle
Posts: 22
Local Time: 08:19 PM
Ok a few months back I heard an interesting cover of Sweetest by what sounded like a choir. What interested me was the simple acoustic accompaniment with the song.

If you know the version I'm talking about and could point me in the direction of it that'd be great. Or if you know how to play it thats even better (Can't say whether it was just the chords or not)


Update: Found the recording. On spotify from "Even Better Than The Real Thing Vol 3" whatever that is. Either way, its a nice guitar part
celticfc09 is offline   Reply With Quote
Reply

Thread Tools Search this Thread
Search this Thread:

Advanced Search
Display Modes

Posting Rules
You may not post new threads
You may not post replies
You may not post attachments
You may not edit your posts

BB code is On
Smilies are On
[IMG] code is On
HTML code is Off
Trackbacks are Off
Pingbacks are Off
Refbacks are Off



All times are GMT -5. The time now is 08:19 PM.


Powered by vBulletin® Version 3.8.8 Beta 1
Copyright ©2000 - 2019, vBulletin Solutions, Inc.
Design, images and all things inclusive copyright © Interference.com
×