Ultraviolet Zoo TV tab - U2 Feedback

Go Back   U2 Feedback > Your Blue Room > Even Better Than The Real Thing ??
Click Here to Login
Reply
 
Thread Tools Search this Thread Display Modes
 
Old 07-06-2011, 09:23 PM   #1
The Fly
 
TheEdge10's Avatar
 
Join Date: Jun 2011
Posts: 170
Local Time: 04:50 AM
Ultraviolet Zoo TV tab

Does anyone have a tab for Ultraviolet? I know some of the song, but not all of it.
__________________

TheEdge10 is offline   Reply With Quote
Old 07-07-2011, 09:37 AM   #2
Refugee
 
TheEdge25's Avatar
 
Join Date: Mar 2010
Location: Utah
Posts: 1,491
Local Time: 01:50 AM
I was literally just about to post a thread asking for this!!! Thank you!

I know the main riff and the part that is played during the "Baby, baby, baby, light my way" part. What I really would like to have the tab for is the what Edge is playing when Bono starts singing, "I remember when we could sleep on stones...." Can't figure that out. I'd also like to know how the ending of the song in the live ZooTV versions goes. I can't figure out the guitar on the last few "baby, baby, baby" parts.

But if someone could post a whole tab, that would be wonderful. Thank you!
__________________

TheEdge25 is offline   Reply With Quote
Old 07-07-2011, 04:52 PM   #3
Blue Crack Addict
 
PhilsFan's Avatar
 
Join Date: Jan 2010
Location: South Philadelphia
Posts: 19,218
Local Time: 04:50 AM
I'll try and type out a tab here:

E ---------------------------------------
---------------------------------------------------------------------------10----9------------------
B --------12----9-----------9---------
--------12----9-----------9------------------12----10----9----10----------------12---10----
G ---------------------11--------9--------------------------11--------9---------------------------------------------------------------------
D ---9--------------------------------------9-------------------------------------9-----------------------------------------------------------
A ---------------------------------------------------------------------------------------------------------------------------------------------
E ---------------------------------------------------------------------------------------------------------------------------------------------

For the outro, I'm pretty sure he just plays the same stuff he plays during the part where Edge sings "Ultraviolet."
PhilsFan is offline   Reply With Quote
Old 07-12-2011, 02:37 PM   #4
Refugee
 
Pero's Avatar
 
Join Date: Sep 2004
Location: Zagreb, Croatia
Posts: 2,089
Local Time: 10:50 AM
i saw a tab, i believe on ultimate-guitar, a tab of uv from zoo tv, google it.
and with PhilsFan's tab you have the whole song.

remember to tune down half a step for live, not sure for album version
Pero is offline   Reply With Quote
Reply

Thread Tools Search this Thread
Search this Thread:

Advanced Search
Display Modes

Posting Rules
You may not post new threads
You may not post replies
You may not post attachments
You may not edit your posts

BB code is On
Smilies are On
[IMG] code is On
HTML code is Off
Trackbacks are Off
Pingbacks are Off
Refbacks are Off



All times are GMT -5. The time now is 03:50 AM.


Powered by vBulletin® Version 3.8.8 Beta 1
Copyright ©2000 - 2018, vBulletin Solutions, Inc.
Design, images and all things inclusive copyright © Interference.com