ultraviolet tab - U2 Feedback

Go Back   U2 Feedback > Your Blue Room > Even Better Than The Real Thing ??
Click Here to Login
Reply
 
Thread Tools Search this Thread Display Modes
 
Old 03-30-2007, 10:03 AM   #1
MOU
The Fly
 
Join Date: Jul 2005
Location: spain
Posts: 101
Local Time: 10:24 AM
ultraviolet tab

i´m looking for the correct way to play it, i would like to get the correct tab for live version.

Something like this:




or

__________________

MOU is offline   Reply With Quote
Old 03-31-2007, 10:40 AM   #2
Refugee
 
Pero's Avatar
 
Join Date: Sep 2004
Location: Zagreb, Croatia
Posts: 2,089
Local Time: 12:24 PM
try u2star.com
__________________

Pero is offline   Reply With Quote
Old 03-31-2007, 01:34 PM   #3
MOU
The Fly
 
Join Date: Jul 2005
Location: spain
Posts: 101
Local Time: 10:24 AM
thanks pero, but i think i think that the bridge and the corus are wrong.
MOU is offline   Reply With Quote
Old 04-04-2007, 10:16 AM   #4
MOU
The Fly
 
Join Date: Jul 2005
Location: spain
Posts: 101
Local Time: 10:24 AM
what abaut this tab??

Hi there,
Here is the tab for this song. I don't usually do this sort of thing as it takes too long to work out but I don't mind just this once. Enjoy!
The whole song is played on the first three strings E, B and G apart from the E and A major chords in the middle.

For this backing track I played the main riff in the following place:
'X' - strings muted with index finger to create percussive effect.

E-----X--X--X--X--X--X--X--X--X--X--X--X--X--X--X--X--X--X
B-----10-10-10-10-10-10-10-10-10-11-11-11-11-11-11-11-11-11
G-----10-10-10-10-10-10-10-10-10-11-10-10-10-10-10-10-10-10
D-----X--X--X--X--X--X--X--X--X--X--X--X--X--X--X--X--X--X

E-----11-11-11-11-11-11-10-10-10-10-10-10
B-----11-11-11-11-11-11-11-11-11-11-11-11
G-----10-10-10-10-10-10-10-10-10-10-10-10
D-----X--X--X--X--X--X--X--X--X--X--X--X

The 'Ultraviolet' singing section is as follows:

E----12-12--12-12--12-12--12-12-12-12--12--11----11
B----9--10--9--10--9--10--9--10-9------------------
G----9--9---9--9---9--9---9--9--9--11---------11--- THEN:

E----12-12--12-12--12-12--12-12-----------12------
B----9--10--9--10--9--10--9--10-9------10----10----
G----9--9---9--9---9--9---9--9----10-9----------9--

Here's the 'Baby Baby Baby Light My Way' bit:

E---X--X--X--X--X--X--X--X---X--X--X---
B---13-13-13-13-13-13-13-13--13-13-13--
G---10-10-10-10-10-9/10/9/10-10-10-10-- X 2
D---X--X--X--X--X--X-X--X-X--X--X--X---

E---X--X--X--X--X--X--X--X---X--X--X---
B---11-11-11-11-11-11-11-11--11-11-11--
G---10-10-10-10-10-9/10/9/10-10-10-10-- X 2
D---X--X--X--X--X--X-X--X-X--X--X--X---

And finally, here's the picked middle section under 'And I remember when we could sleep on stone' after the E and A chords.

E------------------------------------------10-9-------
B---12-9----9-----12-9----9-----12-10-9-10------12-10- X 2?
G--------11------------11-----------------------------



The last time play:

E------------------------------------------10-9-10-12--
B---12-9----9-----12-9----9-----12-10-9-10-------------
G--------11------------11------------------------------

This is basically the whole song. I hope this helps.
Oh, and please don't let on I've tabbed this as I will be inundated with requests I can't do. I don't mind doing this as a one-off as a special but I don't have the time spare to keep tabbing.

Also, I hope this gets to you OK and not all out of sync as has happened before.
MOU is offline   Reply With Quote
Old 04-04-2007, 10:18 AM   #5
MOU
The Fly
 
Join Date: Jul 2005
Location: spain
Posts: 101
Local Time: 10:24 AM
i think that it sound perfect
MOU is offline   Reply With Quote
Old 04-05-2007, 07:42 AM   #6
The Fly
 
Join Date: Dec 2006
Location: Spain
Posts: 39
Local Time: 10:24 AM
with standard tunning?
GonzaU2-Spain is offline   Reply With Quote
Old 04-05-2007, 01:03 PM   #7
MOU
The Fly
 
Join Date: Jul 2005
Location: spain
Posts: 101
Local Time: 10:24 AM
it´s sound good with eb an a capo on first
MOU is offline   Reply With Quote
Old 09-30-2009, 09:16 AM   #8
Babyface
 
jamestheedge14's Avatar
 
Join Date: Jul 2009
Location: Prescot, Liverpool UK
Posts: 6
Local Time: 10:24 AM
Anyone know the correct delay settins for ultraviolet, cheers x
jamestheedge14 is offline   Reply With Quote
Old 10-05-2009, 05:40 PM   #9
Rock n' Roll Doggie
VIP PASS
 
U2DMfan's Avatar
 
Join Date: Jul 2000
Location: It's Inside A Black Hole
Posts: 6,637
Local Time: 04:24 AM
Quote:
Originally Posted by jamestheedge14 View Post
Anyone know the correct delay settins for ultraviolet, cheers x
Try this rule of thumb.

find out the bpm/tempo. (count the beats for 30 seconds and double it)

Divide the bpm by factors of 15, 30, 45, and 60.

Then try those 4 numbers and choose the one that closely matches and then tweak it from there.

Edge uses double delay a lot, so if you have a single pedal it will be a tough match but you can find one close enough to play a cool version.
U2DMfan is offline   Reply With Quote
Old 12-07-2009, 03:03 PM   #10
Babyface
 
Join Date: Nov 2004
Posts: 14
Local Time: 11:24 AM
The absolutely best chords IMHo are those of this guy (imho they certainly fit to the 360 live version), though his effect setting might need a bit improvement.



I think a big characteristic of the 360 version are the noticeable high notes in the main chord.

Thats my try of replaying Ultraviolet (POD X3 Live and Fender Stratocaster used). Still working on the right up-/downstrokes:
http://www.zdarsky.info/website/20/w...rat_PODX3Live1

Not the best version, already playing it different fitting the rhythm of the main parts, but thats the only version I recorded right now.
sushbone is offline   Reply With Quote
Old 12-07-2009, 03:28 PM   #11
Blue Crack Supplier
 
waynetravis's Avatar
 
Join Date: Dec 2005
Location: Hull, UK
Posts: 36,231
Local Time: 10:24 AM
This one has the 360 slide towards the end:



waynetravis is offline   Reply With Quote
Old 12-07-2009, 03:49 PM   #12
Babyface
 
Join Date: Nov 2004
Posts: 14
Local Time: 11:24 AM
Cool version. Though I think in the middle part he has mixed some guitar scenes together separately recording them. But nice nevertheless. And nice sound.
sushbone is offline   Reply With Quote
Old 12-23-2009, 04:50 PM   #13
Refugee
 
Ellay's Avatar
 
Join Date: Aug 2002
Location: England
Posts: 2,075
Local Time: 10:24 AM
Thank you all for this
Ellay is offline   Reply With Quote
Old 06-04-2010, 03:22 PM   #14
Fan & Taper
 
Chrisedge's Avatar
 
Join Date: Jan 2001
Location: So Cal
Posts: 2,265
Local Time: 03:24 AM
Love all the backing tracks. Esp the one in post #11
Chrisedge is offline   Reply With Quote
Old 08-09-2010, 11:33 AM   #15
Babyface
 
Join Date: Aug 2009
Posts: 8
Local Time: 05:24 AM
Here's how I play it, sounds a lot more like the live versions than most of the other tabs kicking around. (Tune down 1/2 step).

For the chorus :
(Remember the delay creates some of the sound here. A guy above tabbed out part of this section erroneously (8-9-8-9). The delay creates the second '8-9' sound.


x---x---x-x-x-x---x--x--x-x-x-x--
12--12--12121212--12-12-12121212-
9---9---9-9-9-8---9--9--9-9-9-9-- x 2
x---x---x-x-x-x---x--x--x-x-x-x--
---------------------------------
---------------------------------
1 + + + 2 + + + 3 + + + 4 + + +

x---x---x-x-x-x---x--x--x-x-x-x--
10--10--10101010--10-10-10101010-
9---9---9-9-9-8---9--9--9-9-9-9-- x 2
x---x---x-x-x-x---x--x--x-x-x-x--
---------------------------------
---------------------------------
1 + + + 2 + + + 3 + + + 4 + + +


For the 'I Remember...' part :


--7---------------7---------------7-----------10--9--------------
----9-7---9---------9-7---9--------10-9---10----------12--10-----
9-------9---9---9-------9---9---9-------9---9---9---9---9---9----
-----------------------------------------------------------------
-----------------------------------------------------------------
-----------------------------------------------------------------
1 + 2 + 3 + 4 + 1 + 2 + 3 + 4 + 1 + 2 + 3 + 4 + 1 + 2 + 3 + 4 +
__________________

PJBonoVox is offline   Reply With Quote
Reply

Tags
ultraviolet

Thread Tools Search this Thread
Search this Thread:

Advanced Search
Display Modes

Posting Rules
You may not post new threads
You may not post replies
You may not post attachments
You may not edit your posts

BB code is On
Smilies are On
[IMG] code is On
HTML code is Off
Trackbacks are Off
Pingbacks are Off
Refbacks are Off



All times are GMT -5. The time now is 05:24 AM.


Powered by vBulletin® Version 3.8.8 Beta 1
Copyright ©2000 - 2019, vBulletin Solutions, Inc.
Design, images and all things inclusive copyright © Interference.com
×