Stuck in a moment (Elevation DVD) - U2 Feedback

Go Back   U2 Feedback > Your Blue Room > Even Better Than The Real Thing ??
Click Here to Login
Reply
 
Thread Tools Search this Thread Display Modes
 
Old 02-07-2005, 12:01 PM   #1
The Fly
 
aledavid's Avatar
 
Join Date: Jan 2003
Posts: 182
Local Time: 04:54 PM
Stuck in a moment (Elevation DVD)

I want to play the notes that the Edge plays in stuck in a moment from elevation DVD (Boston), just after the first verse:

EX:

...and you can't get out of there

--->(notes that I want to play)<---

I will not forsake...
__________________

aledavid is offline   Reply With Quote
Old 02-07-2005, 12:07 PM   #2
War Child
 
theedgefan's Avatar
 
Join Date: Dec 2004
Location: Herford/ Northrhine-Westphalia/ Germany
Posts: 690
Local Time: 12:54 AM
maybe this can give you a hint:


Stuck In A Moment You Can't Get Out Of
Music: U2
Transcribed: P Dagnall

This is a really nice tune, and good selection for a single. This transcription
is from the Irving Plaza club gig U2 did in November 2000.

Most of what Edge does on this song is played around the chords. There are a couple
of nice fills in the song too.

This is another of those tunes I know Edge won't play the same thing phrase after
phrase, so I've tried to tab as best I could from the MP3 of the song.


Intro: Useing the Chords of the song here E, A, B, C#m. Repeat this 2 times.

-------------------------------------------------------------------------------
-----9----------9---10------9--9-9-------7---------------9---------------------
-/-9-9---9--9-9-9-9-9--x--9-9--9-9---------8---------------9-----/-9-9-------9-
-/-9---x-9--9-9---7-7--x--9-9--9-9--/-9------9-9-/-11-11-----11--/-7-7-6-h-7-9-
-/-7---x-7--7-7-----------7-7--7-7-------------------------------------------7-
-------------------------------------------------------------------------------

Verse: Again, similar to the intro, except pick through the notes of the chords
occasionally instead of strumming them.

Pre Chorus: Appregiated riff around the E chord.

--------------------------------------------------------------------------
-----9---9-h-10-9---12---10-9-10-9--------9---9-h-10-9---12---10-9-10-9---
-/-9---9----------9----9-----------9-/-99---9----------9----9-----------9-
--------------------------------------------------------------------------
--------------------------------------------------------------------------
--------------------------------------------------------------------------

--------------------------------------------------------------------------
-----9---9-h-10-9---12---10-9-10-9--------9---9-h-10-9---9-7-7-7-7-7------
-/-9---9----------9----9-----------9-/-99---9----------9-9-8-6-6-8-8------
--------------------------------------------------------------------------
--------------------------------------------------------------------------
--------------------------------------------------------------------------

Chorus: Follow the Intro again - but add a little more emphasis on the chords
and the pick through the B and C#m chords. Hold off on the last A, an E and then:

----------------------------------------------------------------------------
----------------------------------------------------------------------------
----9-----9-------9-/-11----------------------------------------------------
-6--9--6--9--6--9-9-/-11-9-6-h-7-p-6----------------------------------------
-------------------------------------7--------------------------------------
----------------------------------------------------------------------------

The second Pre Chorus has this added variation in the second section:

--------------------------------------------------------------------------------
-----9---9-h-10-9---12---10-9-10-9---------11----11-h-12-11----12---10-9-10-9---
-/-9---9----------9----9-----------9-/-111----11------------11----9-----------9-
--------------------------------------------------------------------------------
--------------------------------------------------------------------------------
--------------------------------------------------------------------------------

Middle 8:

----------------------------------------------------------------------------
----------------------------------------------------------------------------
-6--6-6-6--6-6-6--6-6-6--9--14--14-14-144--14-14-14-13-11-13----------------
----------------------------------------------------------------------------
-4--4-4-4--4-4-4--4-4-4--7--12--12-12-122--12-12-12-11-9--11----------------
----------------------------------------------------------------------------


----------------------------------------------------------------------------
----------------------------------------------------------------------------
-9--9-9-9--9-9-9--8-8-8--6-6-6--4-4-4--66-6-6--4-4-4------------------------
----------------------------------------------------------------------------
-7--7-7-7--7-7-7--6-6-6--4-4-4--2-2-2--44-4-4--2-2-2------------------------
----------------------------------------------------------------------------


----------------------------------------------------------------------------
----------------------------------------------------------------------------
-6--6-6-6--6-6-6--6-6-6--9--14--14-14-144--14-14-14-13-11-13----------------
----------------------------------------------------------------------------
-4--4-4-4--4-4-4--4-4-4--7--12--12-12-122--12-12-12-11-9--11----------------
----------------------------------------------------------------------------


----------------------------------------------------------------------------
----------------------------------------------------------------------------
-7--7-7-7--7-7-7--7-7-7--7-7-7--4--4-4-44--4-4-4--4-4-4--4-4-4--------------
----------------------------------------------------------------------------
-5--5-5-5--5-5-5--5-5-5--5-5-5--2--2-2-22--2-2-2--2-2-2--2-2-2--------------
----------------------------------------------------------------------------
__________________

theedgefan is offline   Reply With Quote
Old 02-07-2005, 12:17 PM   #3
The Fly
 
aledavid's Avatar
 
Join Date: Jan 2003
Posts: 182
Local Time: 04:54 PM
I only want the part that the Edge add to the song, you must hear the boston version. If you can please tell me the notes: b d e#, etc.

Thanks
aledavid is offline   Reply With Quote
Old 02-11-2005, 12:47 PM   #4
Refugee
 
TheFlyOnTheWall's Avatar
 
Join Date: Aug 2004
Location: Croatia
Posts: 1,034
Local Time: 01:54 AM
Quote:
Originally posted by aledavid
I only want the part that the Edge add to the song, you must hear the boston version. If you can please tell me the notes: b d e#, etc.

Thanks
I think I know what you mean. The part where he plays some notes, and on studio version there's just "silence". But I'm not sure what it is, I think he's just playing with the basic (E) chord making some Esus4 and similair stuff. Try to get it yourself on the guitar.
TheFlyOnTheWall is offline   Reply With Quote
Old 02-14-2005, 04:01 PM   #5
Babyface
 
Join Date: Feb 2005
Location: Orlando, FL
Posts: 3
Local Time: 07:54 PM
I'm pretty sure I know what you're talking about. Haven't listened/watched in a while but I think it goes something like this:

e-
b-
g---------9--9-9----------9----------------------
d---------9--9-9-------9-9h11--9--------------
a-9/11------------11-----------------11/9p7--
E--------------------------------------------------

This is my first post on this board so sorry if the tab looks all screwy,

J.
LemonX is offline   Reply With Quote
Reply

Thread Tools Search this Thread
Search this Thread:

Advanced Search
Display Modes

Posting Rules
You may not post new threads
You may not post replies
You may not post attachments
You may not edit your posts

BB code is On
Smilies are On
[IMG] code is On
HTML code is Off
Trackbacks are Off
Pingbacks are Off
Refbacks are Off



All times are GMT -5. The time now is 07:54 PM.


Powered by vBulletin® Version 3.8.8 Beta 1
Copyright ©2000 - 2019, vBulletin Solutions, Inc.
Design, images and all things inclusive copyright © Interference.com
×