RTSS Zootv verison - U2 Feedback

Go Back   U2 Feedback > Your Blue Room > Even Better Than The Real Thing ??
Click Here to Login
Reply
 
Thread Tools Search this Thread Display Modes
 
Old 09-21-2006, 06:27 AM   #1
The Fly
 
Join Date: Nov 2004
Location: Dublin
Posts: 59
Local Time: 05:23 AM
RTSS Zootv verison

Anyone know where i can get a guitar tab for this verison. Heard it for the first when i bought the DVD and it blew me away.
__________________

joe_leedsfc07 is offline   Reply With Quote
Old 09-21-2006, 09:31 PM   #2
New Yorker
 
Join Date: Nov 2005
Posts: 2,846
Local Time: 05:23 AM
e|----------------------------|----10-------10-------------------|
B|-10-12-12-13-12-10--|-------10-------10-12-12-13-12-10-|
G|----------------------------|-11-------11----------------------|
D|---------------------------|----------------------------------|
A|---------------------------|----------------------------------|
E|----------------------------|----------------------------------|
G
e|----------10-------10-------10-------|
B|----10-------10-------10-------10----|
G|-12----12-------12-------12-------12-|
D|-------------------------------------|
A|-------------------------------------|
E|-------------------------------------|

Verse
And so she woke up...
D G 4x
e[----------10-------10-------10----------|----------10-------10-------10-------]
B[----10-------10-------10-------10------|----10-------10-------10-------10----]
G[-11----11-------11-------11-------11-|-12----12-------12-------12-------12-]
D[-------------------------------------|-------------------------------------]
A[-------------------------------------|-------------------------------------]
E[-------------------------------------|-------------------------------------]

Chorus
Singing Hahh...
A G 2X
e[-----------12-------------|----------10----------]
B[-----14-------14----14-|----12-------12----12-]
G[--14----14-------14----|-12----12-------12----]
D[------------------------|----------------------]
A[-----------------------|----------------------]
E[-----------------------|----------------------]
__________________

J_NP is offline   Reply With Quote
Old 09-23-2006, 08:50 PM   #3
Refugee
 
Mofo's Avatar
 
Join Date: Dec 2000
Location: MTY, Mexico
Posts: 1,072
Local Time: 12:23 AM
does anyone know if it's in standard tuning or half a step down?
Mofo is offline   Reply With Quote
Old 09-25-2006, 10:39 AM   #4
The Fly
 
Join Date: Nov 2004
Location: Dublin
Posts: 59
Local Time: 05:23 AM
Thanks a mill J_NP
joe_leedsfc07 is offline   Reply With Quote
Old 09-25-2006, 11:35 AM   #5
War Child
 
craigp's Avatar
 
Join Date: Oct 2005
Location: S. Yorks, UK (In the Shadows & Tall Trees)
Posts: 735
Local Time: 05:23 AM
verry likely to be half step down
craigp is offline   Reply With Quote
Old 09-25-2006, 11:43 AM   #6
Refugee
 
Mofo's Avatar
 
Join Date: Dec 2000
Location: MTY, Mexico
Posts: 1,072
Local Time: 12:23 AM
yeah I didn't knew Streets was also played half a step down has it always been like that or have they played it in standard tuning?
Mofo is offline   Reply With Quote
Old 09-25-2006, 12:04 PM   #7
Rock n' Roll Doggie
FOB
 
discothequeLP's Avatar
 
Join Date: Oct 2003
Location: Los Angeles, CA
Posts: 8,095
Local Time: 10:23 PM
i think they've played Streets half a step down until this tour, but i could be mistaken
discothequeLP is offline   Reply With Quote
Old 09-25-2006, 01:03 PM   #8
Refugee
 
Mofo's Avatar
 
Join Date: Dec 2000
Location: MTY, Mexico
Posts: 1,072
Local Time: 12:23 AM
Just checked a couple of Vertigo Shows, it's definitely on standar tuning wonder why until now
Mofo is offline   Reply With Quote
Old 09-25-2006, 05:44 PM   #9
Refugee
 
Muad'zin's Avatar
 
Join Date: Mar 2001
Location: Nijmegen, the Netherlands
Posts: 1,381
Local Time: 05:23 AM
When in doubt about the why of U2 guitar tunings, go with how good (or bad) Bono's voice is. Playing everything a semitone below the album makes it more easy for him to sing a full night. Apparently lately he seems to think he can handle the original keys better. (for some songs that is)
Muad'zin is offline   Reply With Quote
Old 09-25-2006, 07:10 PM   #10
Refugee
 
Mofo's Avatar
 
Join Date: Dec 2000
Location: MTY, Mexico
Posts: 1,072
Local Time: 12:23 AM
You are right this tour they been doing a lot of songs in standard tuning his voice has improved significantly in my opinion from the past tours (Popmart and Elevation)

but usually I'm tone deaf I have to play along to be sure but thanks for the tip
Mofo is offline   Reply With Quote
Old 09-25-2006, 08:31 PM   #11
New Yorker
 
Join Date: Nov 2005
Posts: 2,846
Local Time: 05:23 AM
Quote:
Originally posted by Mofo
does anyone know if it's in standard tuning or half a step down?
Half down , just try it and u'll find the proper sound
__________________

J_NP is offline   Reply With Quote
Reply

Thread Tools Search this Thread
Search this Thread:

Advanced Search
Display Modes

Posting Rules
You may not post new threads
You may not post replies
You may not post attachments
You may not edit your posts

BB code is On
Smilies are On
[IMG] code is On
HTML code is Off
Trackbacks are Off
Pingbacks are Off
Refbacks are Off



All times are GMT -5. The time now is 12:23 AM.


Powered by vBulletin® Version 3.8.8 Beta 1
Copyright ©2000 - 2019, vBulletin Solutions, Inc.
Design, images and all things inclusive copyright © Interference.com
×