Pride and I Still havent Found chords and tabs - U2 Feedback

Go Back   U2 Feedback > Your Blue Room > Even Better Than The Real Thing ??
Click Here to Login
Reply
 
Thread Tools Search this Thread Display Modes
 
Old 08-23-2008, 01:04 AM   #1
War Child
 
Earl-Of-IMDb's Avatar
 
Join Date: Apr 2007
Location: in a very peaceful place
Posts: 805
Local Time: 05:19 PM
Pride and I Still havent Found chords and tabs

can anyone show me the both chords and tabs for these two, thanks
__________________

Earl-Of-IMDb is offline   Reply With Quote
Old 08-25-2008, 12:44 AM   #2
War Child
 
Earl-Of-IMDb's Avatar
 
Join Date: Apr 2007
Location: in a very peaceful place
Posts: 805
Local Time: 05:19 PM
hello?
__________________

Earl-Of-IMDb is offline   Reply With Quote
Old 08-25-2008, 07:10 AM   #3
Babyface
 
Join Date: Aug 2008
Location: Dublin & Belfast
Posts: 22
Local Time: 11:19 PM
Here's Pride for ya.
The solo can be a little tricky to get the timing. I used to sit watching TV with my guitar not plugged in and just play this solo to build up the strength of my little finger.

Delay is about 0.400 to 0.450s. Have fun

Intro :
E---12-------10---12-------10----
B---12-------10---12-------10----
G--------9-------------9---------
D--------------------------------
A--------------------------------
E--------------------------------

(main riff) :
E------------------------------------------------------------|
B--12--12--12--12--12--12--12--12--12--12--12--12--12--12----|
G--11--11--11--11--11--11--9---9---11--11--9---9---11--11----|
D--9---9---9---9---9---9---9---9---9---9---9---9---9---9-----|
A------------------------------------------------------------|
E------------------------------------------------------------|


E----------------------------------------------------------------|
B--10--10--10--10--10--10--9---9--10--10---9---9--10--10------10-|
G--9---9---9---9---9---9---9---9---9---9---9---9---9---9-------9-|
D--9---9---9---9---9---9---9---9---9---9---9---9---9---9-------9-|

A----------------------------------------------------------------|
E----------------------------------------------------------------|

E-----------------------------------------------------------------|
B--10--10--10--10--10--10--9---9--10--10---9---9---10--10-----10--|
G--11--11--11--11--11--11--11--11--11--11--11--11--11--11-----11--|

D--9---9---9---9---9---9---9---9---9---9---9---9---9---9-------9--|
A-----------------------------------------------------------------|
E-----------------------------------------------------------------|

Filler
E-------------0------------|--------------0-----------------------
B--------------------------|-------------------0------------------
G----------8-------8-------|-----------8----------8---------------
D-------9-------------9----|--------7-----------------------------
A--------------------------|--------------------------------------
E----7---------------------|-----5--------------------------------

solo : x8


E--11h12--14---11h12--14---11h12--14---11----------------
B------------------------------------------12-----------
G-------------------------------------------------------
D-------------------------------------------------------
A-------------------------------------------------------
E-------------------------------------------------------


Brian_C is offline   Reply With Quote
Old 09-26-2010, 06:48 PM   #4
Refugee
 
mirrorballman's Avatar
 
Join Date: Dec 2003
Location: Miami, New Orleans, London, Belfast and ..... ?
Posts: 1,797
Local Time: 12:19 AM
I was just playing around the Pride riff and is it possible that the general tabbing on the internet is a bit off on this one? Above's version is what you will find on all sites. To me, this part is correct:

(main riff) :
E------------------------------------------------------------|
B--12--12--12--12--12--12--12--12--12--12--12--12--12--12----|
G--11--11--11--11--11--11--9---9---11--11--9---9---11--11----|
D--9---9---9---9---9---9---9---9---9---9---9---9---9---9-----|
A------------------------------------------------------------|
E------------------------------------------------------------|

But the 2nd and 3rd part of the main riff I doubt Edge plays the D string, it just sounds way off (especially during the third).

E----------------------------------------------------------------|
B--10--10--10--10--10--10--9---9--10--10---9---9--10--10------10-|
G--9---9---9---9---9---9---9---9---9---9---9---9---9---9-------9-|
D--9---9---9---9---9---9---9---9---9---9---9---9---9---9-------9-|
A----------------------------------------------------------------|
E----------------------------------------------------------------|

E-----------------------------------------------------------------|
B--10--10--10--10--10--10--9---9--10--10---9---9---10--10-----10--|
G--11--11--11--11--11--11--11--11--11--11--11--11--11--11-----11--|
D--9---9---9---9---9---9---9---9---9---9---9---9---9---9-------9--|
A-----------------------------------------------------------------|
E-----------------------------------------------------------------|

If you watch carefully on the "It Might Get Loud" DVD you'll see him move down from the D string with his index finger after the 1st part.
Ideas? Also, I tend to believe he does play the lower E string on the last 2...but I might be off on that one.
mirrorballman is offline   Reply With Quote
Reply

Thread Tools Search this Thread
Search this Thread:

Advanced Search
Display Modes

Posting Rules
You may not post new threads
You may not post replies
You may not post attachments
You may not edit your posts

BB code is On
Smilies are On
[IMG] code is On
HTML code is Off
Trackbacks are Off
Pingbacks are Off
Refbacks are Off



All times are GMT -5. The time now is 06:19 PM.


Powered by vBulletin® Version 3.8.8 Beta 1
Copyright ©2000 - 2019, vBulletin Solutions, Inc.
Design, images and all things inclusive copyright © Interference.com
×