MOS Outro? - U2 Feedback

Go Back   U2 Feedback > Your Blue Room > Even Better Than The Real Thing ??
Click Here to Login
Reply
 
Thread Tools Search this Thread Display Modes
 
Old 11-07-2009, 06:08 PM   #1
War Child
 
Mountain Dew Ma's Avatar
 
Join Date: Jun 2007
Location: The Space Moon™
Posts: 869
Local Time: 09:47 AM
MOS Outro?

after edge plays the chords during the oh oh oh's on the outro he switches to something else after the first set of chords and I can't quite figure it out. Does anybody know?

also i can't quite seem to nail what he does during the verses when he's not playing the piano. any help would be appreciated, thanks.
__________________

Mountain Dew Ma is offline   Reply With Quote
Old 11-10-2009, 08:31 AM   #2
Babyface
 
jamestheedge14's Avatar
 
Join Date: Jul 2009
Location: Prescot, Liverpool UK
Posts: 6
Local Time: 02:47 PM
I second this i would also love to play this, help people thanks
__________________

jamestheedge14 is offline   Reply With Quote
Old 11-16-2009, 01:16 AM   #3
Blue Crack Supplier
 
Join Date: May 2006
Posts: 30,343
Local Time: 09:47 AM
B-13-------13------------15----13----------------13-----------------15---
g---14---------14---------------------14-----------------14---------------
d------14-----------14---------------------14------------------14---------

b-13-------13------------15----13----------------13-----------------15---
g---14---------14---------------------14-----------------14---------------
d------15-----------15---------------------15------------------15---------

b-13-------13------------13----12----------------12-----------------12---
g---12---------12---------------------12-----------------12---------------
d------14-----------14---------------------14------------------14---------

b-12-------12------------13----12----------------12-----------------12---
g---13---------13---------------------13-----------------13---------------
d------14-----------14---------------------14------------------14---------

B---17----15-------------17----15----------------17----15----------------17----15-------------13-------13
G-----------------14---------------------14------------------------14-----------------------14--------------------

B---17----15-------------17----15----------------17----15----------------17----15-------------13-------13
G-----------------14---------------------14------------------------14-----------------------14--------------------
phillyfan26 is offline   Reply With Quote
Reply

Tags
moment of surrender

Thread Tools Search this Thread
Search this Thread:

Advanced Search
Display Modes

Posting Rules
You may not post new threads
You may not post replies
You may not post attachments
You may not edit your posts

BB code is On
Smilies are On
[IMG] code is On
HTML code is Off
Trackbacks are Off
Pingbacks are Off
Refbacks are Off


Similar Threads
Thread Thread Starter Forum Replies Last Post
Pop Survivor Round Two, Interference Superthread (A year of Superthreads!) Axver Lemonade Stand Archive 1050 02-22-2009 04:49 AM
Beautiful Day's Outro Live Kicks My Ass namkcuR Everything You Know Is Wrong Archive 27 03-08-2006 05:31 AM
Best U2 Outro??? discothequeLP Everything You Know Is Wrong Archive 45 08-17-2005 07:20 PM


All times are GMT -5. The time now is 09:47 AM.


Powered by vBulletin® Version 3.8.8 Beta 1
Copyright ©2000 - 2019, vBulletin Solutions, Inc.
Design, images and all things inclusive copyright © Interference.com
×