Miracle Drug Guitar Tab - U2 Feedback

Go Back   U2 Feedback > Your Blue Room > Even Better Than The Real Thing ??
Click Here to Login
Reply
 
Thread Tools Search this Thread Display Modes
 
Old 11-07-2004, 01:06 PM   #1
Rock n' Roll Doggie
FOB
 
discothequeLP's Avatar
 
Join Date: Oct 2003
Location: Los Angeles, CA
Posts: 8,095
Local Time: 07:45 PM
Miracle Drug Guitar Tab

ok, here it is. can i get this posted on the U2 Guitar Archive?



Code:

 Miracle Drug -- Tabbed by DiscothequeLP (theedgeslespaul@sbcglobal.net)




Standard Tuning


e|---------------------------7-----|
b|-----10--------------------------|
g|-7--------9---7/9-----7--------7-|  2x
d|---------------------------------|
a|---------------------------------|
E|---------------------------------|



Verse :

e|---------------------------7-----|
b|-----10--------------------------|
g|-7--------9---(7/9)---7--------7-|  4x
d|---------------------------------|
a|---------------------------------|
E|---------------------------------|

     I wanna trip...



e|----------------------------------|
b|----------------------------------|
g|----------------------------------|
d|----------------------------------|
a|-5--4---0*-------------5--4-------|
E|-------------------------------3*-|
   
    Freedom has...



Chours

e|-10-10-10-10-10-10-10-10--10-10-10-10-10-10-10-10-|
b|-7--7--7--7--7--7--7--7---8--8--8--8--8--8--8--8--|
g|-7--7--7--7--7--7--7--7---7--7--7--7--7--7--7--7--|
d|--------------------------------------------------| 3x
a|--------------------------------------------------|
E|--------------------------------------------------|


The songs are...





Then back to the intro (starting on the 2nd half actually). 




Second Verse:


e|---------------------------7-----|
b|-----10--------------------------|
g|-7--------9---(7/9)---7--------7-|  3x
d|---------------------------------|
a|---------------------------------|
E|---------------------------------|

    Of science and...



e|----------------------------|
b|--------10------------------|
g|-7h9---------9---7---9---6--|
d|----------------------------|
a|----------------------------|
E|----------------------------|

  Time will dissapear...



e|-------------------------7-----|
b|-------10------------10----10--|
g|-7h9--------9--7-7-------------|
d|-------------------------------|
a|-------------------------------|
E|-------------------------------|

  Love and logic...


e|---------------------------|
b|-------10-----------10-----|
g|-7h9-------9--7-7-------6--|
d|---------------------------|
a|---------------------------|
E|---------------------------|


   Reason is on...


e|------------|
b|------------|
g|------------|
d|------------|
a|-5--4-------|
E|--------3*--|

  Love, oohh...







Then do the chorus, but it's 5x, not 3x




Solo 




This part Edge plays with a slide


e|----------------------------------|
b|----------------------------------|
g|----------------------------------|
d|-7--7/12-----12\11--\--7-----7/9--|
a|----------------------------------|
E|----------------------------------|



e|---------------------------------|
b|---------------------------------|
g|---------------------------------|
d|-11/12-----12/14------12\11---9--|
a|---------------------------------|
E|---------------------------------|



e|-------------------------------------|
b|-12\10--/14--\10-------7\5--/10--\7--|
g|-------------------------------------|
d|-------------------------------------|
a|-------------------------------------|
E|-------------------------------------|


This part is played normally...you might want a Herdim pick to get that 'ching' sound.


         (8x)                       (8x)                  (8x)              (8x)

e|-12-12-12-12-12-12-12-12--12/14-14-14-14-14-14-14--5-5-5-5-5-5-5-5--7-7-7-7-7-7-7-7/--|
b|--------------------------------------------------------------------------------------|

  
         (6x)                        (8x)
  
e|-17-17-17-17-17-17-17--15-15/14-14-14-14-14-14-14---12-12-12-12/14-14-14-14-10-10-10-10--10/7-7-7-7-|
b|----------------------------------------------------------------------------------------------------|





Bridge
     
  
                                  (8x)                                              (8x)                              
      
e|-10-10-10--10-10-10-10---10-10-10-10-10-10-10-10--17-17-17--17-17-17-17--17-17-17-17-17-17-17-17--|
b|-8--8--8---7--7--7--7----5--5--5--5--5--5--5--5---15-15-15--14-14-14-14--12-12-12-12-12-12-12-12--|
g|--------------------------------------------------------------------------------------------------|
d|--------------------------------------------------------------------------------------------------| (2x)
a|--------------------------------------------------------------------------------------------------|
E|--------------------------------------------------------------------------------------------------|


 Beneath the noise... 





I can't make out if the last chorus changes, but just play the above chorus tab 8x and it's fine. 



End with:

e|-7--|
b|-7--|
g|-7--|
d|----|
a|----|
E|----|
__________________

discothequeLP is offline   Reply With Quote
Old 11-07-2004, 03:06 PM   #2
Refugee
 
IrishDawg's Avatar
 
Join Date: Jul 2004
Posts: 1,068
Local Time: 02:45 AM
THANK YOU!
__________________

IrishDawg is offline   Reply With Quote
Old 11-07-2004, 03:50 PM   #3
Refugee
 
Mofo's Avatar
 
Join Date: Dec 2000
Location: MTY, Mexico
Posts: 1,072
Local Time: 09:45 PM
It sounds great!! thanks for the work
Mofo is offline   Reply With Quote
Old 11-07-2004, 11:29 PM   #4
Refugee
 
AussieU2fanman's Avatar
 
Join Date: Dec 2003
Location: Adelaide, Australia
Posts: 1,638
Local Time: 01:15 PM
chorus chords are G-A-D-Em
AussieU2fanman is offline   Reply With Quote
Old 11-08-2004, 01:50 AM   #5
The Fly
 
chezPaul's Avatar
 
Join Date: Mar 2004
Location: Spain
Posts: 43
Local Time: 03:45 AM
COOL!! THANK U DISCOTHEQUE!!!! :lol
chezPaul is offline   Reply With Quote
Old 11-08-2004, 08:37 PM   #6
Rock n' Roll Doggie
FOB
 
discothequeLP's Avatar
 
Join Date: Oct 2003
Location: Los Angeles, CA
Posts: 8,095
Local Time: 07:45 PM
i have to change the bit where edge sings, but i dont have time!!!!


give me a couple days...
discothequeLP is offline   Reply With Quote
Old 11-08-2004, 09:04 PM   #7
Acrobat
 
Join Date: Jul 2004
Location: St. Louis, MO
Posts: 399
Local Time: 02:45 AM
the last miracle drug that bono sings is a Bm i believe... it's also the first Bm of the beginning of the verse after the first chorus. it goes Bm, G, D, A, Bm, G and then the second verse starts on D (D, A, Bm, G x2) ... hmm, maybe i'll type out the chords (and maybe this has already been done)

D, A, Bm, G x2 (intro)
D, A, Bm, G x4 (first verse)
G, A, D, Em (pre chorus)
G, A, D, Em, G, A (first chorus)
Bm, G, D, A, Bm, G (before verse 2)
D, A, Bm, G x3 (second verse)
G, A, D, Em (pre chorus)
G, A, D, Em, G, A, D, Em, G, A (second chorus)
Bm, Bm, Bm, Bm (transition)
Bm, A, G, G x3 (bridge/solo)
G, A, D, Em x2 (solo 2 -- before edge)
G, A, D, Em, G, A, Bm, E (edge verse)
G, A, D, Em, G, A, Bm, E, G, A, Bm, E, G, A, Bm, E, Bm (last chorus/outro)

*** i'm pretty sure it goes to E major at the end ... starting from the last chord of edge's verse ... but since they aren't playing full chords i can't tell.

does this sound right to you guys?
Anirban is offline   Reply With Quote
Old 11-10-2004, 03:06 PM   #8
Rock n' Roll Doggie
FOB
 
discothequeLP's Avatar
 
Join Date: Oct 2003
Location: Los Angeles, CA
Posts: 8,095
Local Time: 07:45 PM
OK guys, im done fixing my tab. I tabbed out that part betweeen the first chorus and the second verse, and i fixed the tab at the part were Edge sings.


Code:
Miracle Drug -- Tabbed by DiscothequeLP (theedgeslespaul@sbcglobal.net)


Standard Tuning




Intro:

e|---------------------------7-----|
b|-----10--------------------------|
g|-7--------9---7/9-----7--------7-|  2x
d|---------------------------------|
a|---------------------------------|
E|---------------------------------|



Verse :

e|---------------------------7-----|
b|-----10--------------------------|
g|-7--------9---(7/9)---7--------7-|  4x
d|---------------------------------|
a|---------------------------------|
E|---------------------------------|

     I wanna trip...



e|----------------------------------|
b|----------------------------------|
g|----------------------------------|
d|----------------------------------|
a|-5--4---0*-------------5--4-------|
E|-------------------------------3*-|
   
    Freedom has...



Chours

e|-10-10-10-10-10-10-10-10--10-10-10-10-10-10-10-10-|
b|-7--7--7--7--7--7--7--7---8--8--8--8--8--8--8--8--|
g|-7--7--7--7--7--7--7--7---7--7--7--7--7--7--7--7--|
d|--------------------------------------------------| 3x
a|--------------------------------------------------|
E|--------------------------------------------------|


The songs are...





Then there's this part before the second verse:


e|-----7------------------------------7------|
b|------------------10-----------------------|
g|-7-----9-----7---------9------7----------7-|  
d|-------------------------------------------|
a|-------------------------------------------|
E|-------------------------------------------|




Second Verse:


e|---------------------------7-----|
b|-----10--------------------------|
g|-7--------9---(7/9)---7--------7-|  3x
d|---------------------------------|
a|---------------------------------|
E|---------------------------------|

    Of science and...



e|----------------------------|
b|--------10------------------|
g|-7h9---------9---7---9---6--|
d|----------------------------|
a|----------------------------|
E|----------------------------|

  Time will dissapear...



e|-------------------------7-----|
b|-------10------------10----10--|
g|-7h9--------9--7-7-------------|
d|-------------------------------|
a|-------------------------------|
E|-------------------------------|

  Love and logic...


e|---------------------------|
b|-------10-----------10-----|
g|-7h9-------9--7-7-------6--|
d|---------------------------|
a|---------------------------|
E|---------------------------|


   Reason is on...


e|------------|
b|------------|
g|------------|
d|------------|
a|-5--4-------|
E|--------3*--|

  Love, oohh...







Then do the chorus, but it's 5x, not 3x




Solo 




This part Edge plays with a slide


e|----------------------------------|
b|----------------------------------|
g|----------------------------------|
d|-7--7/12-----12\11--\--7-----7/9--|
a|----------------------------------|
E|----------------------------------|



e|---------------------------------|
b|---------------------------------|
g|---------------------------------|
d|-11/12-----12/14------12\11---9--|
a|---------------------------------|
E|---------------------------------|



e|-------------------------------------|
b|-12\10--/14--\10-------7\5--/10--\7--|
g|-------------------------------------|
d|-------------------------------------|
a|-------------------------------------|
E|-------------------------------------|


This part is played normally...you might want a Herdim pick to get that 'ching' sound.


         (8x)                       (8x)                  (8x)              (8x)

e|-12-12-12-12-12-12-12-12--12/14-14-14-14-14-14-14--5-5-5-5-5-5-5-5--7-7-7-7-7-7-7-7/--|
b|--------------------------------------------------------------------------------------|

  
         (6x)                        (8x)
  
e|-17-17-17-17-17-17-17--15-15/14-14-14-14-14-14-14---12-12-12-12/14-14-14-14-10-10-10-10--10/7-7-7-7-|
b|----------------------------------------------------------------------------------------------------|





Bridge
     
  
                                                                              (8x)                              
      
e|-10-10-10--10-10-10-10--10-10-10--9--9--9--9--9--9--17-17-17--17-17-17--17-17-17-15-15-15-15-15-15-|
b|-8--8--8---7--7--7--7---5--5--5---5--5--5--5--5--5--15-15-15--14-14-14--12-12-12-12-12-12-12-12-12-|
g|---------------------------------------------------------------------------------------------------|
d|---------------------------------------------------------------------------------------------------| (2x)
a|---------------------------------------------------------------------------------------------------|
E|---------------------------------------------------------------------------------------------------|


 Beneath the noise... 





I can't make out if the last chorus changes, but just play the above chorus tab 8x and it's fine. 



End with:

e|-7--|
b|-7--|
g|-7--|
d|----|
a|----|
E|----|
discothequeLP is offline   Reply With Quote
Old 11-21-2004, 12:03 AM   #9
The Fly
 
mr mc sarcasm's Avatar
 
Join Date: Jul 2004
Location: Netherlands
Posts: 144
Local Time: 02:45 AM
WOW...thanx man!!...I'm gonna be playing it today
mr mc sarcasm is offline   Reply With Quote
Old 11-27-2004, 04:01 AM   #10
Babyface
 
Join Date: Nov 2004
Posts: 2
Local Time: 02:45 AM
excellent job fella.

even spunds quite good on an acoustic, ignoring the chorded part!!

Dont suppose you know what guitar it is played on? Is it an explorer?

I have an SG and a strat, so just wonder what will give the best realism to the song?
bfoster is offline   Reply With Quote
Old 11-27-2004, 04:21 AM   #11
Refugee
 
IrishDawg's Avatar
 
Join Date: Jul 2004
Posts: 1,068
Local Time: 02:45 AM
It would sound increadible on a Strat. I'm not sure, but he's probably playing his Gibson Les Paul...?
IrishDawg is offline   Reply With Quote
Old 11-27-2004, 07:52 AM   #12
Rock n' Roll Doggie
FOB
 
discothequeLP's Avatar
 
Join Date: Oct 2003
Location: Los Angeles, CA
Posts: 8,095
Local Time: 07:45 PM
on the New York show on the 21st he played his Explorer
__________________

discothequeLP is offline   Reply With Quote
Reply

Thread Tools Search this Thread
Search this Thread:

Advanced Search
Display Modes

Posting Rules
You may not post new threads
You may not post replies
You may not post attachments
You may not edit your posts

BB code is On
Smilies are On
[IMG] code is On
HTML code is Off
Trackbacks are Off
Pingbacks are Off
Refbacks are Off



All times are GMT -5. The time now is 09:45 PM.


Powered by vBulletin® Version 3.8.8 Beta 1
Copyright ©2000 - 2019, vBulletin Solutions, Inc.
Design, images and all things inclusive copyright © Interference.com
×