Love Rescue Me Tab - U2 Feedback

Go Back   U2 Feedback > Your Blue Room > Even Better Than The Real Thing ??
Click Here to Login
Reply
 
Thread Tools Search this Thread Display Modes
 
Old 05-29-2004, 09:24 AM   #1
Acrobat
 
OnFire's Avatar
 
Join Date: May 2004
Posts: 386
Local Time: 01:14 PM
Love Rescue Me Tab

Here's one from the guitar archive that makes for a very nice acoustic number.

From: Jonathan Lozoya <Jonathan@selfdestruct.com>

This is one of my favorite songs, teach it to a friend... .
Love Rescue Me
by U2
>From Rattle and Hum
Please give me credit if you post this elsewhere.thanks



E -------------------------------2------------------------------------
B -------2-----------2---------3---3---------2-----------2-----------2
G -----2---2-------2---2-----2-------2-----2---2-------2---2-------2--
D ---2-------2---2-------2-0-------------2-------2---2-------2---2----
A -0-----------0-----------------------0-----------0-----------0------
E --------------------------------------------------------------------

E -----------------------------------------------------------2-----
B -----------0-----------0-----------2-----------2---------3---3---
G -2-------1---1-------1---1-------2---2-------2---2-----2-------2-
D ---2---2-------2---2-------2---2-------2---2-------2-0-----------
A -----0-----------0-----------0-----------0-----------------------
E -----------------------------------------------------------------

E --------------------------------------------------------------
B --------2----------2-----------0-----------2-----------2------
G ------2---2------2---2-------1---1-------2---2-------2---2----
D ----2-------2---2------2---2-------2---2-------2---2-------2--
A --0-----------0----------0-----------0-----------0------------
E --------------------------------------------------------------

E -------------------------------2------------------------------------
B -------2-----------2---------3---3---------2-----------2-----------2
G -----2---2-------2---2-----2-------2-----2---2-------2---2-------2--
D ---2-------2---2-------2-0-------------2-------2---2-------2---2----
A -0-----------0-----------------------0-----------0-----------0------
E --------------------------------------------------------------------
Love rescue me come fourth and speak to me raise me up

E -----------------------------------------------------------2-----
B -----------0-----------0-----------2-----------2---------3---3---
G -2-------1---1-------1---1-------2---2-------2---2-----2-------2-
D ---2---2-------2---2-------2---2-------2---2-------2-0-----------
A -----0-----------0-----------0-----------0-----------------------
E -----------------------------------------------------------------
and don't let me fall ..etc.




I didn't have much time to finish it but that's the main riff

Jonathan@selfdestruct.com
OnFire is offline   Reply With Quote
Reply

Thread Tools Search this Thread
Search this Thread:

Advanced Search
Display Modes

Posting Rules
You may not post new threads
You may not post replies
You may not post attachments
You may not edit your posts

BB code is On
Smilies are On
[IMG] code is On
HTML code is Off
Trackbacks are Off
Pingbacks are Off
Refbacks are Off



All times are GMT -5. The time now is 08:14 AM.


Powered by vBulletin® Version 3.8.8 Beta 1
Copyright ©2000 - 2019, vBulletin Solutions, Inc.
Design, images and all things inclusive copyright © Interference.com
×