"Kingdom" Chords - U2 Feedback

Go Back   U2 Feedback > Your Blue Room > Even Better Than The Real Thing ??
Click Here to Login
Reply
 
Thread Tools Search this Thread Display Modes
 
Old 07-19-2009, 01:57 PM   #1
Refugee
 
JoRu's Avatar
 
Join Date: May 2008
Location: Gallifrey
Posts: 1,067
Local Time: 04:45 PM
"Kingdom" Chords

Here's the chords for the song "Kingdom" that's been playing before each concert on the 360 tour and rumored to be part of Songs of Ascent. Here's the song firstly:



And now the chords for it:

Code:
Intro: B Bsus4

B       Bsus4
Soon... Soon... (x7)

D                A
Sing yourself on down the street
                    Em
Sing yourself right off your feet
                                            D
Sing yourself away from victory and from defeat
                   A
Sing yourself with fife and drum
                 Em
Sing yourself to overcome

The thought that someone's lost
                     D
And someone else has won
I also made a small tab for the "Soon..." part of the song, I couldn't figure out the rest though:

Code:
e|---------------------------------------------------------------|
B|----4-------4--------------------------------------------------|
G|-4-----4-4-----------------------------------------------------|
D|---------------------------------------------------------------|
A|---------------------------------------------------------------|
E|---------------------------------------------------------------| (x2)

And then:

e|---------------------------------------------------------------|
B|----5-------5--------------------------------------------------|
G|-4-----4-4-----------------------------------------------------|
D|---------------------------------------------------------------|
A|---------------------------------------------------------------|
E|---------------------------------------------------------------| (x2)
I'm not that good at these kind of things, but enjoy!
__________________

JoRu is offline   Reply With Quote
Old 07-19-2009, 02:12 PM   #2
Blue Crack Supplier
 
waynetravis's Avatar
 
Join Date: Dec 2005
Location: Hull, UK
Posts: 36,231
Local Time: 03:45 PM
Well done
__________________

waynetravis is offline   Reply With Quote
Old 07-23-2009, 05:31 AM   #3
Acrobat
 
Barkeeper's Avatar
 
Join Date: Feb 2006
Location: Netherlands, Hilversum
Posts: 394
Local Time: 02:45 PM
Nice!! Thanks a lot.
Barkeeper is offline   Reply With Quote
Reply

Thread Tools Search this Thread
Search this Thread:

Advanced Search
Display Modes

Posting Rules
You may not post new threads
You may not post replies
You may not post attachments
You may not edit your posts

BB code is On
Smilies are On
[IMG] code is On
HTML code is Off
Trackbacks are Off
Pingbacks are Off
Refbacks are Off


Similar Threads
Thread Thread Starter Forum Replies Last Post
Stories for boys chords hatrickpatrick Even Better Than The Real Thing ?? 1 02-19-2007 09:49 AM
True Chords for One axwack Even Better Than The Real Thing ?? 2 04-07-2006 07:29 AM
my first attempt at Slug (chords) U2DMfan Even Better Than The Real Thing ?? 3 04-19-2005 07:34 PM
Party Girl Guitar Chords The Disciple Even Better Than The Real Thing ?? 2 10-05-2004 06:20 PM


All times are GMT -5. The time now is 09:45 AM.


Powered by vBulletin® Version 3.8.8 Beta 1
Copyright ©2000 - 2018, vBulletin Solutions, Inc.
Design, images and all things inclusive copyright © Interference.com