In A Little While Boston - U2 Feedback

Go Back   U2 Feedback > Your Blue Room > Even Better Than The Real Thing ??
Click Here to Login
Reply
 
Thread Tools Search this Thread Display Modes
 
Old 05-15-2008, 02:40 PM   #1
Babyface
 
Join Date: Jun 2007
Posts: 3
Local Time: 02:07 AM
In A Little While Boston

Hi folks!
Lately I have listened a lot to "In A Little While" (live from Boston), and I have really wanted to play it as Edge does in this "twisted" version of this masterpiece.
Therefore I decided to sit down with the guitar and use my eyes and ears to learn of the master, while watching the dvd.


Note: THIS IS MY FIRST TAB EVER!


Comments or corrections would be great!

Thanks!


-------------------------------------------------------------------------------
In A Little While (live from Boston) - U2
-------------------------------------------------------------------------------
Tabbed by: Anders Sørby
Email: Asoerby(NOSPAM)@msn.com

Tuning: Eb

Main riff:
e|----------------------------------------------------------3----------------|
B|---------5--------------7--------------7-------------------3---------------|
G|-----------6--------------6--------------7------------/4----4--------------|
D|----/7-------7-----/8-------8-----/9-------9-------------------------------|
A|---------------------------------------------------------------------------|
E|---------------------------------------------------------------------------|



e|---------------------------------------------------------------------------|
B|---------7----8--7---5--7--5-----------------------------------------------|
G|-------7---7---------6--7--6-----------------------------------------------|
D|-----7---------------7--7--7-----------------------------------------------|
A|-----------0---------------------------------------------------------------|
E|---------------------------------------------------------------------------|



Rest of the song goes like the original I think.
__________________

TheFly_a is offline   Reply With Quote
Old 05-17-2008, 02:36 PM   #2
ONE
love, blood, life
 
EdgeIsTooSexy's Avatar
 
Join Date: May 2007
Posts: 10,828
Local Time: 09:07 PM
yeah i play it pretty similar to this
__________________

EdgeIsTooSexy is offline   Reply With Quote
Old 12-13-2008, 08:16 PM   #3
The Fly
 
StaySafeTonight's Avatar
 
Join Date: Dec 2005
Posts: 128
Local Time: 02:07 AM
e|----------------------------------------------------------------------------|
B|---------5--------------7--------------7-------------------8---------------|
G|-----------6--------------6--------------7------------------7--------------|
D|----/7-------7-----/8-------8-----/9-------9----------/9-------------------|
A|---------------------------------------------------------------------------|
E|---------------------------------------------------------------------------|

I would change one chord and slide that way to make it sound a little fuller and for it to be much easier.
StaySafeTonight is offline   Reply With Quote
Reply

Thread Tools Search this Thread
Search this Thread:

Advanced Search
Display Modes

Posting Rules
You may not post new threads
You may not post replies
You may not post attachments
You may not edit your posts

BB code is On
Smilies are On
[IMG] code is On
HTML code is Off
Trackbacks are Off
Pingbacks are Off
Refbacks are Off



All times are GMT -5. The time now is 09:07 PM.


Powered by vBulletin® Version 3.8.8 Beta 1
Copyright ©2000 - 2019, vBulletin Solutions, Inc.
Design, images and all things inclusive copyright © Interference.com
×