If You Wear that Velvet Dress Live - U2 Feedback

Go Back   U2 Feedback > Your Blue Room > Even Better Than The Real Thing ??
Click Here to Login
Reply
 
Thread Tools Search this Thread Display Modes
 
Old 02-22-2005, 06:54 PM   #1
The Fly
 
Join Date: Dec 2004
Posts: 42
Local Time: 01:32 AM
If You Wear that Velvet Dress Live

hello, i'm looking for tabs or chords of if you wear...live, i think the live versions are played all in the same way..

thanks.
__________________

maynard is offline   Reply With Quote
Old 02-23-2005, 05:47 AM   #2
Rock n' Roll Doggie
Band-aid
 
The_Edge89's Avatar
 
Join Date: Jul 2003
Location: Sweden Northwest of Dancing ZooTV
Posts: 4,069
Local Time: 02:32 AM
(As usual not mine)
Code:
If You Wear That Velvet Dress
U2
Mexico City
Tune down ½ step.

Heavy distortion and long sustain. Try a Big Muff if you don’t have the Lovetone pedal Edge uses.
e       |---------------------------------------------------------------------------|
B       |---------------------------------------------------------------------------|
G       |---------------------------------------------------------------------------|   
D       |---------------------------------------------------------------------------|
A       |---------------------------------------------------------------------------|
E       |---7---5---4---3---7---5---4---3---7---5---4---3---7---5---4---3-----------|

e       |---------------------------------------------------------------------------|
B       |---------------------------------------------------------------------------|
G       |---------------------------------------------------------------------------|   
D       |---------------------------------------------------------------------------|
A       |---------------------------------------------------------------------------|
E       |---7-----------5--------4-----3--------------------------------------------|
  Tonight               the moon is playing 

e       |---------------------------------------------------------------------------|
B       |---------------------------------------------------------------------------|
G       |---------------------------------------------------------------------------|   
D       |---------------------------------------------------------------------------|
A       |---------------------------------------------------------------------------|
E       |---7---------------5----4-----3--------------------------------------------|
tricks again             Feeling sea 

e       |--------------------------------------------------------------------------------|
B       |--------------------------------------------------------------------------------|
G       |--------------------------------------------------------------------------------|  
D       |--------------------------------------------------------------------------------|
A       |--------------------------------------------------------------------------------|
E       |---7---------------------------------5------------------------4----------3------|
sick again and the      whole world could just        dissolve 


e       |---------------------------------------------------------|
B       |---------------------------------------------------------|
G       |---------------------------------------------------------|   
D       |---------------------------------------------------------|
A       |---------------------------------------------------------|
E       |----------------------7--------5--------4----------3-----|
into a glass of water 

e       |-----------------------------------------------------------------------|
B       |-----------------------------------------------------------------------|
G       |-----------------------------------------------------------------------|        
D       |-----------------------------------------------------------------------|
A       |-----------------------------------------------------------------------|
E       |---------------7------------5--------4-------------------3-------------|
I've been good                                                    'cause I know you don't 

e       |------------------------------------------------------------------------|
B       |------------------------------------------------------------------------|
G       |------------------------------------------------------------------------|       
D       |------------------------------------------------------------------------|
A       |------------------------------------------------------------------------|
E       |---7-------------------------------------------5----4-----3-------------|
want me to                                   Do you really 

e       |-------------------------------------------------------------------------|
B       |-------------------------------------------------------------------------|
G       |-------------------------------------------------------------------------|       
D       |-------------------------------------------------------------------------|
A       |-------------------------------------------------------------------------|
E       |---7----------------------5----------4-----------------3-----------------|
want me to be as       blue as    you it's her     daylight that 

e       |---------------------------------------------------------------------------------|
B       |---------------------------------------------------------------------------------|
G       |---------------------------------------------------------------------------------|       
D       |---------------------------------------------------------------------------------|
A       |---------------------------------------------------------------------------------|
E       |---7----------------------5----------4-----------------3-------------------------|
gets me through


Use a clean tone here, with no delay.
e       |-------------2----------2---------------0----------3---------------2----------2---------------0----------3---|
B       |----------3----------------3---------0----------------3---------3----------------3---------0---------------3-|
G       |-------4--------4---2--------2---1--------1---0--------0---4--------4---2--------2---1--------1---0--------0-|
D       |-------------------------------------------------------------------------------------------------------------|
A       |-------------------------------------------------------------------------------------------------------------|
E       |-------------------------------------------------------------------------------------------------------------|
If you wear                            that velvet dress

e       |-------------2----------2---------------0----------3---------------2----------2---------------0----------3---|
B       |----------3----------------3---------0----------------3---------3----------------3---------0---------------3-|
G       |-------4--------4---2--------2---1--------1---0--------0---4--------4---2--------2---1--------1---0--------0-|
D       |-------------------------------------------------------------------------------------------------------------|
A       |-------------------------------------------------------------------------------------------------------------|
E       |-------------------------------------------------------------------------------------------------------------|
If you wear                            that velvet dress

Tonight the moon's drawn its curtains 
It's a private show, no one has to know I'm wanting
e       |---6-----------9---8---6-----6-----------9---8---6-----6------------9---8---6-----6---------------|
B       |------6-----6--------------9-----6-----6--------------9-----6-----6--------------9-----6-----6----|
G       |---------6---------------------------6---------------------------6---------------------------6----|
D       |--------------------------------------------------------------------------------------------------|
A       |--------------------------------------------------------------------------------------------------|
E       |--------------------------------------------------------------------------------------------------|
        Tonight                         the moon is a mirror ball               Light

e       |----9---8---6-----6-----------9---8---6-----6------------9---8---6-----6---------------|
B       |----------------9-----6-----6--------------9-----6-----6--------------9-----6-----6----|
G       |--------------------------6---------------------------6---------------------------6----|
D       |---------------------------------------------------------------------------------------|
A       |---------------------------------------------------------------------------------------|
E       |---------------------------------------------------------------------------------------|
        Flickers from across the hall           who’ll catch the star 
e       |----9---8---6-----6-----------9---8---6-----6------------9---8---6-------|
B       |----------------9-----6-----6--------------9-----6-----6-----------------|
G       |--------------------------6---------------------------6------------------|
D       |-------------------------------------------------------------------------|
A       |-------------------------------------------------------------------------|
E       |-------------------------------------------------------------------------|
        When it falls

e       |--------2----------2------------0-------------3------------2-------------2---------------0---------3----|
B       |-----3----------------3------------0-------------3------------3-------------3---------0---------------3-|
G       |--4--------4---2--------2---1--------1---0--------0---4--------4---2--------2---1--------1---0--------0-|
D       |--------------------------------------------------------------------------------------------------------|
A       |--------------------------------------------------------------------------------------------------------|
E       |--------------------------------------------------------------------------------------------------------|
If you wear                            that velvet dress

e       |--------2----------2---------------0----------3---------------2----------2------------0----------3---|
B       |-----3----------------3---------0----------------3---------3----------------3------------0---------3-|
G       |--4--------4---2--------2---1--------1---0--------0---4--------4---2--------2---1--------1---0-----0-|
D       |-----------------------------------------------------------------------------------------------------|
A       |-----------------------------------------------------------------------------------------------------|
E       |-----------------------------------------------------------------------------------------------------|
If you wear                            that velvet dress                                that

e       |--------2----------2------------0-------------3---------------2----------2------------0----------3---|
B       |----3----------------3------------0-------------3---------3----------------3------------0----------3-|
G       |--4--------4---2--------2---1--------1---0--------0---4--------4---2--------2---1--------1---0-----0-|
D       |-----------------------------------------------------------------------------------------------------|
A       |-----------------------------------------------------------------------------------------------------|
E       |-----------------------------------------------------------------------------------------------------|
velvet dress                            that velvet dress                               that

fade
e       |------2-----2----|      
B       |---------3-------|
G       |---4-------------|
D       |-----------------|
A       |-----------------|
E       |-----------------|
        velvet dress…
__________________

The_Edge89 is offline   Reply With Quote
Old 02-23-2005, 06:40 PM   #3
The Fly
 
Join Date: Dec 2004
Posts: 42
Local Time: 01:32 AM
thank you
maynard is offline   Reply With Quote
Old 02-24-2005, 03:38 AM   #4
Rock n' Roll Doggie
Band-aid
 
The_Edge89's Avatar
 
Join Date: Jul 2003
Location: Sweden Northwest of Dancing ZooTV
Posts: 4,069
Local Time: 02:32 AM
no problem
The_Edge89 is offline   Reply With Quote
Old 02-24-2005, 09:38 AM   #5
The Fly
 
sligo U2 fan's Avatar
 
Join Date: Mar 2004
Location: Sligo
Posts: 178
Local Time: 01:32 AM
big muff!!!!!! ha ha!!!!!!
sligo U2 fan is offline   Reply With Quote
Reply

Thread Tools Search this Thread
Search this Thread:

Advanced Search
Display Modes

Posting Rules
You may not post new threads
You may not post replies
You may not post attachments
You may not edit your posts

BB code is On
Smilies are On
[IMG] code is On
HTML code is Off
Trackbacks are Off
Pingbacks are Off
Refbacks are Off



All times are GMT -5. The time now is 08:32 PM.


Powered by vBulletin® Version 3.8.8 Beta 1
Copyright ©2000 - 2019, vBulletin Solutions, Inc.
Design, images and all things inclusive copyright © Interference.com
×