i still having found......... - U2 Feedback

Go Back   U2 Feedback > Your Blue Room > Even Better Than The Real Thing ??
Click Here to Login
Reply
 
Thread Tools Search this Thread Display Modes
 
Old 02-18-2007, 12:51 PM   #1
MOU
The Fly
 
Join Date: Jul 2005
Location: spain
Posts: 101
Local Time: 03:39 AM
i still having found.........

i need a really good tab for this song, i wish to play it like in vertigo tour or elevation tour,
thanks
__________________

MOU is offline   Reply With Quote
Old 02-20-2007, 09:00 PM   #2
The Fly
 
throng's Avatar
 
Join Date: May 2006
Location: Mexico
Posts: 55
Local Time: 09:39 PM
Hey, I'm just gonna make a quick tab for you and i hope it helps. You need a capo in the third fret and you need some delay, i dont know how fast beacuse i dont have my delay pedal right now but maybe someone else can tell you that

this is the beginning which is also the verse
|---------------------------5-------------
|------6----6---------6---------6-------
|----0---0----0----0---0----0----0----
|-----------------------------------------
|-----------------------------------------
|--6--------------6-----------------------
(repeat 2 times)

and then...(just do it once)
|---------------------------5-------------
|------6----6---------6---------6-------
|----0---0----0----0---0----0----0----
|-----------------------------------------
|--6--------------6-------------------------
|-----------------------------------------

and then go back to the first riff and play it once then repeat from the star until the chorus comes in
|---------------------------5-------------
|------6----6---------6---------6-------
|----0---0----0----0---0----0----0----
|-----------------------------------------
|-----------------------------------------
|--6--------------6-----------------------

chorus (i'm not very shure this is 100% right but it sounds very close to it)
|------------------------------------------
|------6---6------6-4----6-6------------
|----0---0--0---0-0----0-0-0-----------
|--0---------------------------------------
|---------------6--------------------------
|-----------------------6--------6--------

and then the bridge thing
|-----------------------------------------------------
|-----------------------------------------------------
|----------------8-8-7-7--------------7-7-8-8----
|----------------8-8-8-8--------------8-8-8-8----
|-----------------------------------------------------
|--6-6-6-6-6-------------6-6-6-6-6--------------(this string goes palm muted)

continues......
|-------------------------------------------
|---------------------------------------------
|----------------8-8-7-7--------------------------
|----------------8-8-8-8-----------------------
|--6-6-6-6-6----------------------------------
|---------------------------6-6-6-6-------------
(5th and 6th strings are played with palm mute)

I think that's it, and i think it's right so enjoy

Note:It's really important to use the capo, otherwise you won't be able to play it and this is how edge plays it live (not studio version)
__________________

throng is offline   Reply With Quote
Old 02-21-2007, 10:56 AM   #3
MOU
The Fly
 
Join Date: Jul 2005
Location: spain
Posts: 101
Local Time: 03:39 AM
GOOD VERSION, THANKS
MOU is offline   Reply With Quote
Reply

Thread Tools Search this Thread
Search this Thread:

Advanced Search
Display Modes

Posting Rules
You may not post new threads
You may not post replies
You may not post attachments
You may not edit your posts

BB code is On
Smilies are On
[IMG] code is On
HTML code is Off
Trackbacks are Off
Pingbacks are Off
Refbacks are Off



All times are GMT -5. The time now is 10:39 PM.


Powered by vBulletin® Version 3.8.8 Beta 1
Copyright ©2000 - 2019, vBulletin Solutions, Inc.
Design, images and all things inclusive copyright © Interference.com
×