Disappearing Act - U2 Feedback

Go Back   U2 Feedback > Your Blue Room > Even Better Than The Real Thing ??
Click Here to Login
Reply
 
Thread Tools Search this Thread Display Modes
 
Old 11-12-2010, 12:09 AM   #1
Babyface
 
celticfc09's Avatar
 
Join Date: Nov 2010
Location: the inner circle
Posts: 22
Local Time: 12:17 PM
Disappearing Act

Ok it seems rather strange that there is no tab for this truly remarkable song. therefore, lets put one together. I have worked out a few bits and pieces, but if there is someone a little better than I, here's the start:


Intro -- As typical of Edge, he's picking chords

Bb....F....C (all root 4th) listen for pattern this is only a rough sketch.

Bb
|------------------------------|
|-----------11--------11-------|
|-------10-------10------10----| x2
|----8-------------------------|
|------------------------------|
|------------------------------|

F
|------------------------------|
|----------5-----5-------------|
|-------4-----4------5---------| x2
|----3-------------------------|
|------------------------------|
|------------------------------|

C
|-------------------------------------|
|--------------13--------13----------|
|---------12--------12--------12-----|
|----10-------------------------------| x2
|-------------------------------------|
|-------------------------------------|


back to Bb x2.....F x4



then the slide riff


e|-----------------------------------------
B|----11/10\11----15/18-------------------
G|-----------------------------------------



and from here on its beyond me.

Edge is (also typical) picking harmonix during the verse, as well as playing that one chord. dont know what it is.

the Bb, C, F picking is repeated in the prechorus (i think is what that could be considered).

so, get to work
celticfc09 is offline   Reply With Quote
Reply

Thread Tools Search this Thread
Search this Thread:

Advanced Search
Display Modes

Posting Rules
You may not post new threads
You may not post replies
You may not post attachments
You may not edit your posts

BB code is On
Smilies are On
[IMG] code is On
HTML code is Off
Trackbacks are Off
Pingbacks are Off
Refbacks are Off



All times are GMT -5. The time now is 12:17 PM.


Powered by vBulletin® Version 3.8.8 Beta 1
Copyright ©2000 - 2019, vBulletin Solutions, Inc.
Design, images and all things inclusive copyright © Interference.com
×