COBL Guitar Tab - U2 Feedback

Go Back   U2 Feedback > Your Blue Room > Even Better Than The Real Thing ??
Click Here to Login
Reply
 
Thread Tools Search this Thread Display Modes
 
Old 11-08-2004, 03:29 PM   #1
The Fly
 
Join Date: Sep 2004
Posts: 190
Local Time: 01:38 AM
COBL Guitar Tab

K, this is my stab at it, since no one else has attempted it yet:

Standard tuning.

First part: pick an open chord, let it ring to get the effect
e---------------------------------------------------|
B---------------------------------------------------|
G---------------------------------------------------|
D---------------------------------------------------|
A---------------------------------------------------|
E----0----------------------------------------------|

Play this sort of intermittently, and a little muted. Make sure to play more of the B string than the e.
e-----12-------------------------------------------|
B-----10-------------------------------------------|
G---------------------------------------------------|
D---------------------------------------------------|
A---------------------------------------------------|
E---------------------------------------------------|

Piano tabbed for guitar: x4
e---------------------------------------------------|
B----12---10---9---7----10--9--7---5----------|
G---------------------------------------------------|
D---------------------------------------------------|
A---------------------------------------------------|
E---------------------------------------------------|

More piano, maybe guitar, maybe synthesizers... i dunno
e-------------------------------------------------------------------------|
B----15--14~---10--12---15--14--10--10--12--15--14--12/7--|
G-------------------------------------------------------------------------|
D-------------------------------------------------------------------------|
A-------------------------------------------------------------------------|
E-------------------------------------------------------------------------|

During the verse, play this:
e-----12-------------------------------------------|
B-----10-------------------------------------------|
G---------------------------------------------------|
D---------------------------------------------------|
A---------------------------------------------------|
E---------------------------------------------------|

Later versus play something like this:
e-----12-------------------------------------------------------12|
B-----10-10-10-10-10-10-10-10-9-9-9-9-12-12-9-9-10-|
G-------------------------------------------------------------------|
D-------------------------------------------------------------------|
A-------------------------------------------------------------------|
E-------------------------------------------------------------------|

Bridge: something like this x2
e---10--8-7-8-7-5-7-5-3-2--------------------|
B---------------------------------------------------|
G---------------------------------------------------|
D---------------------------------------------------|
A---------------------------------------------------|
E---------------------------------------------------|

Chorus: Not so sure about this... maybe 2 guitars?
e----------------------------------------------------10-10-10--12-12-12-14-14-14-10---|
B----12-12-10--12-12-10-12-12-10-12-10-----------------|
G-------------------------------------------------------------------|
D-------------------------------------------------------------------|
A-------------------------------------------------------------------|
E-------------------------------------------------------------------|

Sorry bout the chorus, don't know how to fix the spacing... but you'll get the idea. The rest of the song is repeats of the above. It is an awesome song!
__________________

stoven is offline   Reply With Quote
Old 11-08-2004, 03:48 PM   #2
The Fly
 
Join Date: Sep 2004
Posts: 190
Local Time: 01:38 AM
Oops, forgot a part of the song... don't know it anyway, maybe someone else will tab that part. The "Time... time..." part.
__________________

stoven is offline   Reply With Quote
Old 11-12-2004, 05:21 PM   #3
The Fly
 
Join Date: Sep 2004
Posts: 190
Local Time: 01:38 AM
Re: COBL Guitar Tab

Quote:
Originally posted by stoven
K, this is my stab at it, since no one else has attempted it yet:

Standard tuning.

My bad everyone, it is tuned down 1/2 step... just realized that Someone help with other parts of the song, this is the best on the album and there's no other tabs!!!
stoven is offline   Reply With Quote
Reply

Thread Tools Search this Thread
Search this Thread:

Advanced Search
Display Modes

Posting Rules
You may not post new threads
You may not post replies
You may not post attachments
You may not edit your posts

BB code is On
Smilies are On
[IMG] code is On
HTML code is Off
Trackbacks are Off
Pingbacks are Off
Refbacks are Off



All times are GMT -5. The time now is 08:38 PM.


Powered by vBulletin® Version 3.8.8 Beta 1
Copyright ©2000 - 2019, vBulletin Solutions, Inc.
Design, images and all things inclusive copyright © Interference.com
×