Anyone happen to have tabs or chords to this? - U2 Feedback

Go Back   U2 Feedback > Your Blue Room > Even Better Than The Real Thing ??
Click Here to Login
Reply
 
Thread Tools Search this Thread Display Modes
 
Old 11-03-2010, 10:18 PM   #1
Refugee
 
TheEdge25's Avatar
 
Join Date: Mar 2010
Location: Utah
Posts: 1,497
Local Time: 10:16 AM
Anyone happen to have tabs or chords to this?

This is Ewan McGregor playing Running To Stand Still.


I'm really interested in knowing what the tab/chords are for how he's playing this, cause it sounds really great.

Anyone?
__________________

TheEdge25 is offline   Reply With Quote
Old 11-05-2010, 05:10 AM   #2
7cs
The Fly
 
7cs's Avatar
 
Join Date: Nov 2007
Location: Italy
Posts: 110
Local Time: 05:16 PM
Ewan plays it in a different tone, it seems E A for the verse and it must be B A for the chorus.

The original is

D G Verse
A G Chorus

This is how I play the zootv version.

Riff

e--------------------------------------------10-------10----
B--10--12--13--13--12--12--10---------10------10-
G--11--11--11--11--11--11--11--11-------11------

e--------------------------------------------10-------10----
B--10--12--13--13--12--12--10---------10------10-
G--11--11--11--11--11--11--12--12-------12------

last time

e-----10--------------
B-------10---10---------
G-12-----12------------

Verse

e------------10-----10----10------------------10----10----10--------
B------10-----10-----10----10---10---10-----10----10----10---10- repeat
G--11---11-----11-----11----11---12---12----12----12----12----

Chorus

e-----------12------------------10----------
B----12-----12---12---10-----10---10-- repeat
G-14---14-----14---12---12-----12-----
__________________

7cs is offline   Reply With Quote
Old 11-06-2010, 07:22 PM   #3
ONE
love, blood, life
 
dan_smee's Avatar
 
Join Date: Nov 2004
Location: Canberra, Australia
Posts: 13,128
Local Time: 04:16 AM
think he's just playing E, Asus2, so moved up a step form the U2 version
dan_smee is offline   Reply With Quote
Reply

Thread Tools Search this Thread
Search this Thread:

Advanced Search
Display Modes

Posting Rules
You may not post new threads
You may not post replies
You may not post attachments
You may not edit your posts

BB code is On
Smilies are On
[IMG] code is On
HTML code is Off
Trackbacks are Off
Pingbacks are Off
Refbacks are Off



All times are GMT -5. The time now is 12:16 PM.


Powered by vBulletin® Version 3.8.8 Beta 1
Copyright ©2000 - 2019, vBulletin Solutions, Inc.
Design, images and all things inclusive copyright © Interference.com
×