All I Want Is You tab? Help anyone? - U2 Feedback

Go Back   U2 Feedback > Your Blue Room > Even Better Than The Real Thing ??
Click Here to Login
Reply
 
Thread Tools Search this Thread Display Modes
 
Old 04-14-2010, 10:23 PM   #1
Refugee
 
TheEdge25's Avatar
 
Join Date: Mar 2010
Location: Utah
Posts: 1,497
Local Time: 08:28 PM
All I Want Is You tab? Help anyone?

I've been looking for a good, simple, relatively easy guitar tab for All I Want Is You.


I was playing around and created a sort of tablature for just the very beginning part, goes like this.


e--------------------------------------------------------------------------------
B-----------------2-------------2--------------------------------3---------------3
G-------------2-------------2-----------------2--------------2--------------2----
D--------------------------------------------------------------------------------
A----0-----------------0-----------------0---------------0----------0----------
E--------------------------------------------------------------------------------


That part is very simple and actually sounds very very good. But the thing is is that I only have that part down. I'd like to find a tab, or some help from you guys, that is just as simple as this but still sounds very good.

I really want to get the guitar part right after Bono sings

"when all I want is you"

that distinct guitar sound that is heard throughout the rest of the song.


Anyone up to help a brother out?
__________________

TheEdge25 is offline   Reply With Quote
Old 04-18-2010, 12:37 AM   #2
Rock n' Roll Doggie
Band-aid
 
theedgeu2's Avatar
 
Join Date: Mar 2009
Location: Secretly listening to a U2 record that's beyond the greatness of Achtung Baby and Joshua Tree while eating brownies. In The Hive™.
Posts: 4,848
Local Time: 11:28 PM
I'd be glad to help you but I don't know it. I'm assuming you know the effects part but I'll say it. A Tube Screamer can really help with that sound. I guess this post is of no use huh?
__________________

theedgeu2 is offline   Reply With Quote
Old 04-22-2010, 03:39 AM   #3
Refugee
 
mirrorballman's Avatar
 
Join Date: Dec 2003
Location: Miami, New Orleans, London, Belfast and ..... ?
Posts: 1,797
Local Time: 04:28 AM
just some pointers...

1. the main riff will need some delay and reverb:

e--0-0-0-0-0-0-0-0-0-2-2-0-0
b--2-2-0-2-2-0-2-0-2-3-3-3-3
g--2-2-2-2-2-2-2-2-2-2-2-2-2
d--2-2-2-2-2-2-2-2-2-0-0-0-0
a--0-0-0-0-0-0-0-0-0--------
e----------------------------

2. Verse 2 begins with

e----5--5--5--5-
b--5--5--5--5---

3. End solo

e-17---17---17---17---17---17---17---17---17---17------17-
b---14---14---14---14---14---15---15---15---15---15-15----

e----17---17---17---17------17---17---17---17---17--------17-
b-14---14---14---14---14--14---15---15---15---15---15--15----

e-------17---17---17---17---17---17---17---17---17-
b-17-17---17---17---17---17---17---17---17---17----

e--------17------17------17------17------------
b--17-17---17-17---17-17---17-17---17-17-17----

e-20-------20------20------20------20------20-21-
b----17-17---17-17---17-17---17-17---17-17-------

then some A and D power chords on the 12th and 14th fret and burst back to the Chorus...
mirrorballman is offline   Reply With Quote
Old 04-23-2010, 04:12 PM   #4
Refugee
 
Join Date: Feb 2008
Posts: 1,593
Local Time: 11:28 PM
also "all the promises..."

e---2--2--2---2---2---2-- etc etc
b-2--2--2---3---3---3----


for the last part of the solo instead of:

e----20--20--20- etc etc
b-17--17---17---

you can do:

e----20---20---20- etc
b-19---19---19----

edge plays it that way live
bigjohn2441 is offline   Reply With Quote
Old 04-25-2010, 07:48 AM   #5
Babyface
 
SpaceRockGuy's Avatar
 
Join Date: Mar 2010
Posts: 6
Local Time: 05:28 AM
I play it like this, so first drone note is open A, then open D (sounds better):

e--------------------------------------------------------------------------------
B---------------2----------2------------------------3---------3----------------
G-----------2----------2----------2-------------2---------2---------2----------
D------------------------------------------0------------------------------------
A----0--------------------------------------------------------------------------
E--------------------------------------------------------------------------------

sometimes it goes like this:

e--------------------------------------------------------------0-----------------
B---------------2----------2------------------------3--------------3------------
G-----------2----------2----------2-------------2-------(2)-----------(2)------
D-------------------------------------------0-----------------------------------
A----0--------------------------------------------------------------------------
E--------------------------------------------------------------------------------

Then there is this part (basically just a B minor and a D major appregio):

e-----------------2------------------------2-------------------------------
B--------------------3------------------3------3---------------------------
G------------2---------2------------2-------------2----------------------- x2
D--------4-----------------------0-----------------------------------------
A-----4--------------------------------------------------------------------
E--------------------------------------------------------------------------


Then there's also this part:

e--------------------------------------------------------------------------
B------10----------10--------10------10-------10------10--------------
G-----------9----------9-------------------9---------9--------------------
D---------------0---------0--------0--------- 0--------0------0-----------
A-------------------------------------------------------------------------
E--------------------------------------------------------------------------

And also a part that goes like this:

e----------------------------------------------------------------------------
B------8---------8-------8------7-------7--------7------------------------
G----------9--------9--------------9--------9----------------------------
D-------------0------- 0-----0--------0-------0------0-------------------
A---------------------------------------------------------------------------
E----------------------------------------------------------------------------

Main riff is something like what mirrorballman posted, it's very easy to figure out.
Note that the parts I posted are not in order, but it's easy to figure out the order.
Don't forget the delay (~425ms).
SpaceRockGuy is offline   Reply With Quote
Reply

Thread Tools Search this Thread
Search this Thread:

Advanced Search
Display Modes

Posting Rules
You may not post new threads
You may not post replies
You may not post attachments
You may not edit your posts

BB code is On
Smilies are On
[IMG] code is On
HTML code is Off
Trackbacks are Off
Pingbacks are Off
Refbacks are Off



All times are GMT -5. The time now is 10:28 PM.


Powered by vBulletin® Version 3.8.8 Beta 1
Copyright ©2000 - 2019, vBulletin Solutions, Inc.
Design, images and all things inclusive copyright © Interference.com
×