All I Want Is You - U2 Feedback

Go Back   U2 Feedback > Your Blue Room > Even Better Than The Real Thing ??
Click Here to Login
Reply
 
Thread Tools Search this Thread Display Modes
 
Old 12-08-2006, 05:55 PM   #1
Blue Crack Supplier
 
Join Date: May 2006
Posts: 30,343
Local Time: 03:06 PM
All I Want Is You

I've got the main riff down, but what is Edge playing during the first verse? Is he playing the chords one string at a time or something because I can't find any source that describes how he plays it.

(Note: Talking Live, Best Example Live From Milan)
__________________

phillyfan26 is offline   Reply With Quote
Old 12-10-2006, 10:27 AM   #2
Refugee
 
mirrorballman's Avatar
 
Join Date: Dec 2003
Location: Miami, New Orleans, London, Belfast and ..... ?
Posts: 1,797
Local Time: 09:06 PM
very easy stuff, its just the chords in different pattern, i think something like this:

------------------------------------------------------------------------
------2----------2---------------3--------3------------------------------
------------2------2-----------------2--------2--------------------------
----------------------------0--------------------------------------------
-0---------------------------------------------------------------------
---------------------------------------------------------------------

sometimes for the last part i play:

-----------------0-----------------------------------
--------3-------------3-------------------------------
-------------2--------------2-------------------------
---0-------------------------------------------------
----------------------------------------------------
----------------------------------------------------

then for "all the promises...." je just plays the chords in normal one string at a time. first upper three, then starting from lower...


for the 2nd verse, it starts like the 1st...but after the first bit he goes into simple

----5--------5-------5----------5------------------------
--------5--------5-------5--------------5---------------
-----------------------------------------------------
-----------------------------------------------------
-----------------------------------------------------
-----------------------------------------------------


just play around with it a bit, youll get the hang of it. and sorry i suck in tabbing so much
__________________

mirrorballman is offline   Reply With Quote
Old 12-11-2006, 02:15 AM   #3
Rock n' Roll Doggie
FOB
 
discothequeLP's Avatar
 
Join Date: Oct 2003
Location: Los Angeles, CA
Posts: 8,095
Local Time: 01:06 PM
Code:
All I Want is You -- Live from Argentina 3/2/2006 (Tabbed by DiscothequeLP)


Set the delay at around 430. Remember to let the delay play. 


Chords:
A: x 0 2 2 2 0
A*: x x x 14 14 12
Asus/D: x x 0 2 3 0 
D: x x 0 2 3 2
D*: x x x 14 15 14
F#m: 2 4 4 2 2 2 



Intro\Verse:

   A                       D
e|------------------------------------------------|
b|-------2--------2--------------3--------3-------|
g|----2--------2--------2-----2--------2-------2--|
d|-------------------------0--------0--------0----|
a|-0--------0--------0----------------------------|
E|------------------------------------------------|

You say                You want



Repeat that a few times, then go to this:


Pre-Chorus:

   F#m
e|----------2----------------------2----------|
b|----------------2-------------3--------3----|
g|-------2-----------2-------2--------------2-| 2x
d|----4-------------------0-----------0-------| 
a|--------------------------------------------|
E|-2-----------2------------------------------|

All the promises      We make. . . 


   A                      Asus/D
e|-------------------------------------0----------|
b|-------2--------2--------------3--------3-------|
g|----2--------2--------2-----2-----------------2-|
d|-------------------------0--------0--------0----|
a|-0--------0--------0----------------------------|
E|------------------------------------------------|

When all             I want                Is You



Then comes the main riff



Main Riff:
 
e|-0-0-0-0--0-0-0---2--2--0--0---2--|
b|-2-2-0-2--0-2-0---3--3--3--3---3--|
g|-2-2-2-2--2-2-2---2--2--2--2---2--| 2x
d|-2-2-2-2--2-2-2---0--0--0--0---0--|
a|-0-0-0-0--0-0-0-------------------|
E|----------------------------------|

To get this to sound right you have to let the delay ring out.



2nd Verse:

Edge plays something like this


e|----------------------------------------------------|
b|----10-------10-------10------10-------10-------10--|
g|--------9--------9----------------9--------9--------|
d|---------------------------0------------------------|
a|-0--------------------------------------------------|
E|----------------------------------------------------|

Repeat a few times then go to the Pre-Chorus and Chorus



After the 2nd chorus, Edge hits a big open A chord, then does this very loose riff:


Verse 3:

e|------0-------0-------0-------------0--------0-------0-|
b|--10-----10------10-----------8---------8--------8-----|
g|-------------------------------------------------------|
d|-------------------------------------------------------|
a|-------------------------------------------------------|
E|-------------------------------------------------------|


Then the Pre-Chorus and Chorus again, then the solo:


Solo:

Edge starts by strumming A* and D* chords, then goes into this riff (I'll only tab the top 2 strings)

e|-17----17----17----17----17----17---------17----17----17----17-----17----|
b|----14----14----14----14----14-----14/15-----15----15----15----15-----15-|  2x

e|-------17----17----17----17----17----17---17----17----17-----
b|-15/17----17----17----17----17----17---17----17----17----17--

e|-17-17-17-17--17-17-17-17-17--17-17-17-17-17---20-20-20-20--20-20-20-20-20--20-20-20-20-20--
b|-17-17-17-17--17-17-17-17-17--17-17-17-17-17---17-17-17-17--17-17-17-17-17--17-17-17-17-17--



Then some big open A and Asus/D chords, and the A* and D* chords again, and Edge plays the Verse 3 riff for the outro.
discothequeLP is offline   Reply With Quote
Old 12-11-2006, 02:34 PM   #4
Blue Crack Supplier
 
Join Date: May 2006
Posts: 30,343
Local Time: 03:06 PM
Wow that looks perfect. Thanks a lot.
phillyfan26 is offline   Reply With Quote
Reply

Thread Tools Search this Thread
Search this Thread:

Advanced Search
Display Modes

Posting Rules
You may not post new threads
You may not post replies
You may not post attachments
You may not edit your posts

BB code is On
Smilies are On
[IMG] code is On
HTML code is Off
Trackbacks are Off
Pingbacks are Off
Refbacks are Off



All times are GMT -5. The time now is 03:06 PM.


Powered by vBulletin® Version 3.8.8 Beta 1
Copyright ©2000 - 2019, vBulletin Solutions, Inc.
Design, images and all things inclusive copyright © Interference.com
×